  0
SECTION
  2
HEADER
  9
$ACADVER
  1
AC1015
  9
$ACADMAINTVER
 70
     6
  9
$DWGCODEPAGE
  3
ANSI_1252
  9
$INSBASE
 10
0.0
 20
0.0
 30
0.0
  9
$EXTMIN
 10
0.0
 20
0.0
 30
0.0
  9
$EXTMAX
 10
2970.0
 20
2100.0
 30
0.0
  9
$LIMMIN
 10
0.0
 20
0.0
  9
$LIMMAX
 10
2970.0
 20
2100.0
  9
$ORTHOMODE
 70
     0
  9
$REGENMODE
 70
     1
  9
$FILLMODE
 70
     1
  9
$QTEXTMODE
 70
     0
  9
$MIRRTEXT
 70
     1
  9
$LTSCALE
 40
10.0
  9
$ATTMODE
 70
     1
  9
$TEXTSIZE
 40
35.0
  9
$TRACEWID
 40
1.0
  9
$TEXTSTYLE
  7
Standard
  9
$CLAYER
  8
0
  9
$CELTYPE
  6
ByLayer
  9
$CECOLOR
 62
   256
  9
$CELTSCALE
 40
1.0
  9
$DISPSILH
 70
     0
  9
$DIMSCALE
 40
1.0
  9
$DIMASZ
 40
33.02
  9
$DIMEXO
 40
10.0
  9
$DIMDLI
 40
3.75
  9
$DIMRND
 40
0.0
  9
$DIMDLE
 40
0.0
  9
$DIMEXE
 40
10.0
  9
$DIMTP
 40
0.0
  9
$DIMTM
 40
0.0
  9
$DIMTXT
 40
35.0
  9
$DIMCEN
 40
2.5
  9
$DIMTSZ
 40
0.0
  9
$DIMTOL
 70
     0
  9
$DIMLIM
 70
     0
  9
$DIMTIH
 70
     1
  9
$DIMTOH
 70
     1
  9
$DIMSE1
 70
     0
  9
$DIMSE2
 70
     0
  9
$DIMTAD
 70
     1
  9
$DIMZIN
 70
     0
  9
$DIMBLK
  1

  9
$DIMASO
 70
     1
  9
$DIMSHO
 70
     1
  9
$DIMPOST
  1

  9
$DIMAPOST
  1

  9
$DIMALT
 70
     0
  9
$DIMALTD
 70
     3
  9
$DIMALTF
 40
0.0393700787
  9
$DIMLFAC
 40
1.0
  9
$DIMTOFL
 70
     1
  9
$DIMTVP
 40
0.0
  9
$DIMTIX
 70
     0
  9
$DIMSOXD
 70
     0
  9
$DIMSAH
 70
     0
  9
$DIMBLK1
  1

  9
$DIMBLK2
  1

  9
$DIMSTYLE
  2
ISO-25
  9
$DIMCLRD
 70
     0
  9
$DIMCLRE
 70
     0
  9
$DIMCLRT
 70
     0
  9
$DIMTFAC
 40
1.0
  9
$DIMGAP
 40
15.24
  9
$DIMJUST
 70
     0
  9
$DIMSD1
 70
     0
  9
$DIMSD2
 70
     0
  9
$DIMTOLJ
 70
     0
  9
$DIMTZIN
 70
     0
  9
$DIMALTZ
 70
     0
  9
$DIMALTTZ
 70
     0
  9
$DIMUPT
 70
     0
  9
$DIMDEC
 70
     2
  9
$DIMTDEC
 70
     2
  9
$DIMALTU
 70
     2
  9
$DIMALTTD
 70
     3
  9
$DIMTXSTY
  7
Standard
  9
$DIMAUNIT
 70
     0
  9
$DIMADEC
 70
     2
  9
$DIMALTRND
 40
0.0
  9
$DIMAZIN
 70
     0
  9
$DIMDSEP
 70
    44
  9
$DIMATFIT
 70
     3
  9
$DIMFRAC
 70
     0
  9
$DIMLDRBLK
  1

  9
$DIMLUNIT
 70
     2
  9
$DIMLWD
 70
    -2
  9
$DIMLWE
 70
    -2
  9
$DIMTMOVE
 70
     0
  9
$LUNITS
 70
     2
  9
$LUPREC
 70
     2
  9
$SKETCHINC
 40
1.0
  9
$FILLETRAD
 40
10.0
  9
$AUNITS
 70
     0
  9
$AUPREC
 70
     2
  9
$MENU
  1
.
  9
$ELEVATION
 40
0.0
  9
$PELEVATION
 40
0.0
  9
$THICKNESS
 40
0.0
  9
$LIMCHECK
 70
     0
  9
$CHAMFERA
 40
0.0
  9
$CHAMFERB
 40
0.0
  9
$CHAMFERC
 40
0.0
  9
$CHAMFERD
 40
0.0
  9
$SKPOLY
 70
     0
  9
$TDCREATE
 40
2456867.641663484
  9
$TDUCREATE
 40
2456867.55833015
  9
$TDUPDATE
 40
2456867.641664271
  9
$TDUUPDATE
 40
2456867.558330937
  9
$TDINDWG
 40
0.0000000116
  9
$TDUSRTIMER
 40
0.0000000116
  9
$USRTIMER
 70
     1
  9
$ANGBASE
 50
0.0
  9
$ANGDIR
 70
     0
  9
$PDMODE
 70
     0
  9
$PDSIZE
 40
-1.0
  9
$PLINEWID
 40
0.0
  9
$SPLFRAME
 70
     0
  9
$SPLINETYPE
 70
     6
  9
$SPLINESEGS
 70
     8
  9
$HANDSEED
  5
16C
  9
$SURFTAB1
 70
     6
  9
$SURFTAB2
 70
     6
  9
$SURFTYPE
 70
     6
  9
$SURFU
 70
     6
  9
$SURFV
 70
     6
  9
$UCSBASE
  2

  9
$UCSNAME
  2

  9
$UCSORG
 10
0.0
 20
0.0
 30
0.0
  9
$UCSXDIR
 10
1.0
 20
0.0
 30
0.0
  9
$UCSYDIR
 10
0.0
 20
1.0
 30
0.0
  9
$UCSORTHOREF
  2

  9
$UCSORTHOVIEW
 70
     0
  9
$UCSORGTOP
 10
0.0
 20
0.0
 30
0.0
  9
$UCSORGBOTTOM
 10
0.0
 20
0.0
 30
0.0
  9
$UCSORGLEFT
 10
0.0
 20
0.0
 30
0.0
  9
$UCSORGRIGHT
 10
0.0
 20
0.0
 30
0.0
  9
$UCSORGFRONT
 10
0.0
 20
0.0
 30
0.0
  9
$UCSORGBACK
 10
0.0
 20
0.0
 30
0.0
  9
$PUCSBASE
  2

  9
$PUCSNAME
  2

  9
$PUCSORG
 10
0.0
 20
0.0
 30
0.0
  9
$PUCSXDIR
 10
1.0
 20
0.0
 30
0.0
  9
$PUCSYDIR
 10
0.0
 20
1.0
 30
0.0
  9
$PUCSORTHOREF
  2

  9
$PUCSORTHOVIEW
 70
     0
  9
$PUCSORGTOP
 10
0.0
 20
0.0
 30
0.0
  9
$PUCSORGBOTTOM
 10
0.0
 20
0.0
 30
0.0
  9
$PUCSORGLEFT
 10
0.0
 20
0.0
 30
0.0
  9
$PUCSORGRIGHT
 10
0.0
 20
0.0
 30
0.0
  9
$PUCSORGFRONT
 10
0.0
 20
0.0
 30
0.0
  9
$PUCSORGBACK
 10
0.0
 20
0.0
 30
0.0
  9
$USERI1
 70
     0
  9
$USERI2
 70
     0
  9
$USERI3
 70
     0
  9
$USERI4
 70
     0
  9
$USERI5
 70
     0
  9
$USERR1
 40
0.0
  9
$USERR2
 40
0.0
  9
$USERR3
 40
0.0
  9
$USERR4
 40
0.0
  9
$USERR5
 40
0.0
  9
$WORLDVIEW
 70
     1
  9
$SHADEDGE
 70
     3
  9
$SHADEDIF
 70
    70
  9
$TILEMODE
 70
     1
  9
$MAXACTVP
 70
    64
  9
$PINSBASE
 10
0.0
 20
0.0
 30
0.0
  9
$PLIMCHECK
 70
     0
  9
$PEXTMIN
 10
1.0000000000E+20
 20
1.0000000000E+20
 30
1.0000000000E+20
  9
$PEXTMAX
 10
-1.0000000000E+20
 20
-1.0000000000E+20
 30
-1.0000000000E+20
  9
$PLIMMIN
 10
0.0
 20
0.0
  9
$PLIMMAX
 10
420.0
 20
297.0
  9
$UNITMODE
 70
     0
  9
$VISRETAIN
 70
     1
  9
$PLINEGEN
 70
     0
  9
$PSLTSCALE
 70
     1
  9
$TREEDEPTH
 70
  3020
  9
$CMLSTYLE
  2
Standard
  9
$CMLJUST
 70
     0
  9
$CMLSCALE
 40
20.0
  9
$PROXYGRAPHICS
 70
     1
  9
$MEASUREMENT
 70
     1
  9
$CELWEIGHT
370
    -1
  9
$ENDCAPS
280
     0
  9
$JOINSTYLE
280
     0
  9
$LWDISPLAY
290
     1
  9
$INSUNITS
 70
     4
  9
$HYPERLINKBASE
  1

  9
$STYLESHEET
  1

  9
$XEDIT
290
     1
  9
$CEPSNTYPE
380
     0
  9
$PSTYLEMODE
290
     1
  9
$FINGERPRINTGUID
  2
{890C23C2-4D87-4494-B6E9-AC3C394175BC}
  9
$VERSIONGUID
  2
{FAEB1C32-E019-11D5-929B-00C0DF256EC4}
  9
$EXTNAMES
290
     1
  9
$PSVPSCALE
 40
0.0
  9
$OLESTARTUP
290
     0
  0
ENDSEC
  0
SECTION
  2
CLASSES
  0
CLASS
  1
ACDBDICTIONARYWDFLT
  2
AcDbDictionaryWithDefault
  3
ObjectDBX Classes
 90
        0
280
     0
281
     0
  0
CLASS
  1
VISUALSTYLE
  2
AcDbVisualStyle
  3
ObjectDBX Classes
 90
     4095
280
     0
281
     0
  0
CLASS
  1
MATERIAL
  2
AcDbMaterial
  3
ObjectDBX Classes
 90
     1153
280
     0
281
     0
  0
CLASS
  1
SCALE
  2
AcDbScale
  3
ObjectDBX Classes
 90
     1153
280
     0
281
     0
  0
CLASS
  1
SUN
  2
AcDbSun
  3
SCENEOE
 90
     1153
280
     0
281
     0
  0
CLASS
  1
ACDBPLACEHOLDER
  2
AcDbPlaceHolder
  3
ObjectDBX Classes
 90
        0
280
     0
281
     0
  0
CLASS
  1
LAYOUT
  2
AcDbLayout
  3
ObjectDBX Classes
 90
        0
280
     0
281
     0
  0
ENDSEC
  0
SECTION
  2
TABLES
  0
TABLE
  2
VPORT
  5
8
330
0
100
AcDbSymbolTable
 70
     1
  0
VPORT
  5
29
330
8
100
AcDbSymbolTableRecord
100
AcDbViewportTableRecord
  2
*Active
 70
     0
 10
0.0
 20
0.0
 11
1.0
 21
1.0
 12
1485.0
 22
1050.0
 13
0.0
 23
0.0
 14
10.0
 24
10.0
 15
10.0
 25
10.0
 16
0.0
 26
0.0
 36
1.0
 17
0.0
 27
0.0
 37
0.0
 40
2100.0
 41
1.4142857143
 42
50.0
 43
0.0
 44
0.0
 50
0.0
 51
0.0
 71
     0
 72
  2000
 73
     1
 74
     3
 75
     0
 76
     0
 77
     0
 78
     0
281
     0
 65
     1
110
0.0
120
0.0
130
0.0
111
1.0
121
0.0
131
0.0
112
0.0
122
1.0
132
0.0
 79
     0
146
0.0
  0
ENDTAB
  0
TABLE
  2
LTYPE
  5
5
330
0
100
AcDbSymbolTable
 70
     6
  0
LTYPE
  5
14
330
5
100
AcDbSymbolTableRecord
100
AcDbLinetypeTableRecord
  2
ByBlock
 70
     0
  3

 72
    65
 73
     0
 40
0.0
  0
LTYPE
  5
15
330
5
100
AcDbSymbolTableRecord
100
AcDbLinetypeTableRecord
  2
ByLayer
 70
     0
  3

 72
    65
 73
     0
 40
0.0
  0
LTYPE
  5
16
330
5
100
AcDbSymbolTableRecord
100
AcDbLinetypeTableRecord
  2
Continuous
 70
     0
  3
Solid line
 72
    65
 73
     0
 40
0.0
  0
LTYPE
  5
6A
330
5
100
AcDbSymbolTableRecord
100
AcDbLinetypeTableRecord
  2
HIDDEN
 70
     0
  3
Hidden __ __ __ __ __ __ __ __ __ __ __ __ __ __
 72
    65
 73
     2
 40
1.905
 49
1.27
 74
     0
 49
-0.635
 74
     0
  0
LTYPE
  5
6B
330
5
100
AcDbSymbolTableRecord
100
AcDbLinetypeTableRecord
  2
PHANTOM
 70
     0
  3
Phantom ______  __  __  ______  __  __  ______
 72
    65
 73
     6
 40
12.7
 49
6.35
 74
     0
 49
-1.27
 74
     0
 49
1.27
 74
     0
 49
-1.27
 74
     0
 49
1.27
 74
     0
 49
-1.27
 74
     0
  0
LTYPE
  5
6C
330
5
100
AcDbSymbolTableRecord
100
AcDbLinetypeTableRecord
  2
CENTER
 70
     0
  3
Center ____ _ ____ _ ____ _ ____ _ ____ _ ____
 72
    65
 73
     4
 40
10.16
 49
6.35
 74
     0
 49
-1.27
 74
     0
 49
1.27
 74
     0
 49
-1.27
 74
     0
  0
LTYPE
  5
6D
330
5
100
AcDbSymbolTableRecord
100
AcDbLinetypeTableRecord
  2
CENTERX2
 70
     0
  3
Center (2x) ________  __  ________  __  _____
 72
    65
 73
     4
 40
20.32
 49
12.7
 74
     0
 49
-2.54
 74
     0
 49
2.54
 74
     0
 49
-2.54
 74
     0
  0
LTYPE
  5
6E
330
5
100
AcDbSymbolTableRecord
100
AcDbLinetypeTableRecord
  2
DOT2
 70
     0
  3
Dot (.5x) ........................................
 72
    65
 73
     2
 40
0.635
 49
0.0
 74
     0
 49
-0.635
 74
     0
  0
ENDTAB
  0
TABLE
  2
LAYER
  5
2
330
0
100
AcDbSymbolTable
 70
     2
  0
LAYER
  5
10
330
2
100
AcDbSymbolTableRecord
100
AcDbLayerTableRecord
  2
0
 70
     0
 62
     7
  6
Continuous
370
    -3
390
F
  0
LAYER
  5
6F
330
2
100
AcDbSymbolTableRecord
100
AcDbLayerTableRecord
  2
FORMAT
 70
     0
 62
     7
  6
Continuous
370
    -3
390
F
  0
ENDTAB
  0
TABLE
  2
STYLE
  5
3
330
0
100
AcDbSymbolTable
 70
     3
  0
STYLE
  5
11
330
3
100
AcDbSymbolTableRecord
100
AcDbTextStyleTableRecord
  2
Standard
 70
     0
 40
0.0
 41
1.0
 50
0.0
 71
     0
 42
35.0
  3
txt
  4

  0
STYLE
  5
8C
330
3
100
AcDbSymbolTableRecord
100
AcDbTextStyleTableRecord
  2
SLDTEXTSTYLE0
 70
     0
 40
0.0
 41
0.75
 50
0.0
 71
     0
 42
35.0
  3
TXT
  4

  0
STYLE
  5
94
330
3
100
AcDbSymbolTableRecord
100
AcDbTextStyleTableRecord
  2
SLDTEXTSTYLE1
 70
     0
 40
0.0
 41
0.6923076923
 50
0.0
 71
     0
 42
35.0
  3
TXT
  4

  0
ENDTAB
  0
TABLE
  2
VIEW
  5
6
330
0
100
AcDbSymbolTable
 70
     0
  0
ENDTAB
  0
TABLE
  2
UCS
  5
7
330
0
100
AcDbSymbolTable
 70
     0
  0
ENDTAB
  0
TABLE
  2
APPID
  5
9
330
0
100
AcDbSymbolTable
 70
     1
  0
APPID
  5
12
330
9
100
AcDbSymbolTableRecord
100
AcDbRegAppTableRecord
  2
ACAD
 70
     0
  0
ENDTAB
  0
TABLE
  2
DIMSTYLE
  5
A
330
0
100
AcDbSymbolTable
 70
     1
100
AcDbDimStyleTable
  0
DIMSTYLE
105
27
330
A
100
AcDbSymbolTableRecord
100
AcDbDimStyleTableRecord
  2
ISO-25
 70
     0
 41
2.5
 42
0.625
 43
3.75
 44
1.25
 73
     0
 74
     0
 77
     1
 78
     8
140
2.5
141
2.5
143
0.0393700787
147
0.625
171
     3
172
     1
178
     0
271
     2
272
     2
274
     3
278
    44
283
     0
284
     8
340
11
  0
ENDTAB
  0
TABLE
  2
BLOCK_RECORD
  5
1
330
0
100
AcDbSymbolTable
 70
     1
  0
BLOCK_RECORD
  5
1F
330
1
100
AcDbSymbolTableRecord
100
AcDbBlockTableRecord
  2
*Model_Space
340
22
  0
BLOCK_RECORD
  5
1B
330
1
100
AcDbSymbolTableRecord
100
AcDbBlockTableRecord
  2
*Paper_Space
340
1E
  0
BLOCK_RECORD
  5
23
330
1
100
AcDbSymbolTableRecord
100
AcDbBlockTableRecord
  2
*Paper_Space0
340
26
  0
ENDTAB
  0
ENDSEC
  0
SECTION
  2
BLOCKS
  0
BLOCK
  5
20
330
1F
100
AcDbEntity
  8
0
100
AcDbBlockBegin
  2
*Model_Space
 70
     0
 10
0.0
 20
0.0
 30
0.0
  3
*Model_Space
  1
*Model_Space
  0
ENDBLK
  5
21
330
1F
100
AcDbEntity
  8
0
100
AcDbBlockEnd
  0
BLOCK
  5
1C
330
1B
100
AcDbEntity
 67
     1
  8
0
100
AcDbBlockBegin
  2
*Paper_Space
 70
     0
 10
0.0
 20
0.0
 30
0.0
  3
*Paper_Space
  1
*Paper_Space
  0
ENDBLK
  5
1D
330
1B
100
AcDbEntity
 67
     1
  8
0
100
AcDbBlockEnd
  0
BLOCK
  5
24
330
23
100
AcDbEntity
  8
0
100
AcDbBlockBegin
  2
*Paper_Space0
 70
     0
 10
0.0
 20
0.0
 30
0.0
  3
*Paper_Space0
  1
*Paper_Space0
  0
ENDBLK
  5
25
330
23
100
AcDbEntity
  8
0
100
AcDbBlockEnd
  0
ENDSEC
  0
SECTION
  2
ENTITIES
  0
LINE
  5
70
330
1F
100
AcDbEntity
  8
0
  6
Continuous
 62
     7
370
     0
100
AcDbLine
 10
2920.0
 20
2050.0
 30
0.0
 11
2920.0
 21
50.0
 31
0.0
  0
LINE
  5
71
330
1F
100
AcDbEntity
  8
0
  6
Continuous
 62
     7
370
     0
100
AcDbLine
 10
1594.0
 20
347.5
 30
0.0
 11
1741.3
 21
347.5
 31
0.0
  0
LINE
  5
72
330
1F
100
AcDbEntity
  8
0
  6
Continuous
 62
     7
370
     0
100
AcDbLine
 10
2036.0
 20
347.5
 30
0.0
 11
2920.0
 21
347.5
 31
0.0
  0
LINE
  5
73
330
1F
100
AcDbEntity
  8
0
  6
Continuous
 62
     7
370
     0
100
AcDbLine
 10
1594.0
 20
92.5
 30
0.0
 11
2920.0
 21
92.5
 31
0.0
  0
LINE
  5
74
330
1F
100
AcDbEntity
  8
0
  6
Continuous
 62
     7
370
     0
100
AcDbLine
 10
1594.0
 20
347.5
 30
0.0
 11
1594.0
 21
283.75
 31
0.0
  0
LINE
  5
75
330
1F
100
AcDbEntity
  8
0
  6
Continuous
 62
     7
370
     0
100
AcDbLine
 10
2920.0
 20
220.0
 30
0.0
 11
2790.0
 21
220.0
 31
0.0
  0
LINE
  5
76
330
1F
100
AcDbEntity
  8
0
  6
Continuous
 62
     7
370
     0
100
AcDbLine
 10
1888.6
 20
220.0
 30
0.0
 11
2036.0
 21
220.0
 31
0.0
  0
LINE
  5
77
330
1F
100
AcDbEntity
  8
0
  6
Continuous
 62
     7
370
     0
100
AcDbLine
 10
2036.0
 20
347.5
 30
0.0
 11
2036.0
 21
50.0
 31
0.0
  0
LINE
  5
78
330
1F
100
AcDbEntity
  8
0
  6
Continuous
 62
     7
370
     0
100
AcDbLine
 10
2478.0
 20
50.0
 30
0.0
 11
2478.0
 21
92.5
 31
0.0
  0
LINE
  5
79
330
1F
100
AcDbEntity
  8
0
  6
Continuous
 62
     7
370
     0
100
AcDbLine
 10
1741.3
 20
347.5
 30
0.0
 11
1888.6
 21
347.5
 31
0.0
  0
LINE
  5
7A
330
1F
100
AcDbEntity
  8
0
  6
Continuous
 62
     7
370
     0
100
AcDbLine
 10
2790.0
 20
92.5
 30
0.0
 11
2790.0
 21
154.9496936018
 31
0.0
  0
LINE
  5
7B
330
1F
100
AcDbEntity
  8
0
  6
Continuous
 62
     7
370
     0
100
AcDbLine
 10
1888.6
 20
347.5
 30
0.0
 11
2036.0
 21
347.5
 31
0.0
  0
LINE
  5
7C
330
1F
100
AcDbEntity
  8
0
  6
Continuous
 62
     7
370
     0
100
AcDbLine
 10
2920.0
 20
154.9496936018
 30
0.0
 11
2790.0
 21
154.9496936018
 31
0.0
  0
LINE
  5
7D
330
1F
100
AcDbEntity
  8
0
  6
Continuous
 62
     7
370
     0
100
AcDbLine
 10
2036.0
 20
220.0
 30
0.0
 11
2790.0
 21
220.0
 31
0.0
  0
LINE
  5
7E
330
1F
100
AcDbEntity
  8
0
  6
Continuous
 62
     7
370
     0
100
AcDbLine
 10
1888.6
 20
347.5
 30
0.0
 11
1888.6
 21
220.0
 31
0.0
  0
LINE
  5
7F
330
1F
100
AcDbEntity
  8
0
  6
Continuous
 62
     7
370
     0
100
AcDbLine
 10
1888.6
 20
220.0
 30
0.0
 11
1741.3
 21
220.0
 31
0.0
  0
LINE
  5
80
330
1F
100
AcDbEntity
  8
0
  6
Continuous
 62
     7
370
     0
100
AcDbLine
 10
2920.0
 20
2050.0
 30
0.0
 11
50.0
 21
2050.0
 31
0.0
  0
LINE
  5
81
330
1F
100
AcDbEntity
  8
0
  6
Continuous
 62
     7
370
     0
100
AcDbLine
 10
50.0
 20
2050.0
 30
0.0
 11
50.0
 21
50.0
 31
0.0
  0
LINE
  5
82
330
1F
100
AcDbEntity
  8
0
  6
Continuous
 62
     7
370
     0
100
AcDbLine
 10
50.0
 20
50.0
 30
0.0
 11
2920.0
 21
50.0
 31
0.0
  0
LINE
  5
83
330
1F
100
AcDbEntity
  8
0
  6
Continuous
 62
     7
370
     0
100
AcDbLine
 10
1741.3
 20
220.0
 30
0.0
 11
1741.3
 21
347.5
 31
0.0
  0
LINE
  5
84
330
1F
100
AcDbEntity
  8
0
  6
Continuous
 62
     7
370
     0
100
AcDbLine
 10
1741.3
 20
220.0
 30
0.0
 11
1594.0
 21
220.0
 31
0.0
  0
LINE
  5
85
330
1F
100
AcDbEntity
  8
0
  6
Continuous
 62
     7
370
     0
100
AcDbLine
 10
2790.0
 20
154.9496936018
 30
0.0
 11
2790.0
 21
220.0
 31
0.0
  0
LINE
  5
86
330
1F
100
AcDbEntity
  8
0
  6
Continuous
 62
     7
370
     0
100
AcDbLine
 10
1594.0
 20
283.75
 30
0.0
 11
1741.3
 21
283.75
 31
0.0
  0
LINE
  5
87
330
1F
100
AcDbEntity
  8
0
  6
Continuous
 62
     7
370
     0
100
AcDbLine
 10
1741.3
 20
283.75
 30
0.0
 11
1888.6
 21
283.75
 31
0.0
  0
LINE
  5
88
330
1F
100
AcDbEntity
  8
0
  6
Continuous
 62
     7
370
     0
100
AcDbLine
 10
1888.6
 20
283.75
 30
0.0
 11
2036.0
 21
283.75
 31
0.0
  0
LINE
  5
89
330
1F
100
AcDbEntity
  8
0
  6
Continuous
 62
     7
370
     0
100
AcDbLine
 10
1594.0
 20
220.0
 30
0.0
 11
1594.0
 21
283.75
 31
0.0
  0
LINE
  5
8A
330
1F
100
AcDbEntity
  8
0
  6
Continuous
 62
     7
370
     0
100
AcDbLine
 10
1594.0
 20
220.0
 30
0.0
 11
1594.0
 21
92.5
 31
0.0
  0
LINE
  5
8B
330
1F
100
AcDbEntity
  8
0
  6
Continuous
 62
     7
370
     0
100
AcDbLine
 10
1594.0
 20
50.0
 30
0.0
 11
1594.0
 21
92.5
 31
0.0
  0
MTEXT
  5
8D
330
1F
100
AcDbEntity
  8
0
  6
Continuous
 62
     7
370
     0
100
AcDbMText
 10
2802.7693727994
 20
194.3244494768
 30
0.0
 40
15.0
 41
0.0
 71
     1
 72
     1
  1
Blattformat
  7
SLDTEXTSTYLE0
 73
     1
 44
1.0
  0
MTEXT
  5
8E
330
1F
100
AcDbEntity
  8
0
  6
Continuous
 62
     7
370
     0
100
AcDbMText
 10
1623.642408927
 20
258.7493046935
 30
0.0
 40
15.0
 41
0.0
 71
     1
 72
     1
  1
Ch. Höfig
  7
SLDTEXTSTYLE0
 73
     1
 44
1.0
  0
MTEXT
  5
8F
330
1F
100
AcDbEntity
  8
0
  6
Continuous
 62
     7
370
     0
100
AcDbMText
 10
1667.7619782589
 20
322.0161239792
 30
0.0
 40
15.0
 41
0.0
 71
     2
 72
     1
  1
Name
  7
SLDTEXTSTYLE0
 73
     1
 44
1.0
  0
MTEXT
  5
90
330
1F
100
AcDbEntity
  8
0
  6
Continuous
 62
     7
370
     0
100
AcDbMText
 10
1604.4586230876
 20
209.8605628925
 30
0.0
 40
15.0
 41
0.0
 71
     1
 72
     1
  1
Werkstoff:
  7
SLDTEXTSTYLE0
 73
     1
 44
1.0
  0
MTEXT
  5
91
330
1F
100
AcDbEntity
  8
0
  6
Continuous
 62
     7
370
     0
100
AcDbMText
 10
2048.6498590342
 20
322.4610146297
 30
0.0
 40
15.0
 41
0.0
 71
     1
 72
     1
  1
Artikelnummer
  7
SLDTEXTSTYLE0
 73
     1
 44
1.0
  0
MTEXT
  5
92
330
1F
100
AcDbEntity
  8
0
  6
Continuous
 62
     7
370
     0
100
AcDbMText
 10
2048.7396611749
 20
198.6863782703
 30
0.0
 40
15.0
 41
0.0
 71
     1
 72
     1
  1
Hersteller
  7
SLDTEXTSTYLE0
 73
     1
 44
1.0
  0
MTEXT
  5
93
330
1F
100
AcDbEntity
  8
0
  6
Continuous
 62
     7
370
     0
100
AcDbMText
 10
2048.7396611749
 20
79.0008727453
 30
0.0
 40
15.0
 41
0.0
 71
     1
 72
     1
  1
Massstab: 1:10
  7
SLDTEXTSTYLE0
 73
     1
 44
1.0
  0
MTEXT
  5
95
330
1F
100
AcDbEntity
  8
0
  6
Continuous
 62
     7
370
     0
100
AcDbMText
 10
2492.7829442782
 20
79.0008727453
 30
0.0
 40
15.0
 41
0.0
 71
     1
 72
     1
  1
Blatt 1 von 1
  7
SLDTEXTSTYLE1
 73
     1
 44
1.0
  0
MTEXT
  5
96
330
1F
100
AcDbEntity
  8
0
  6
Continuous
 62
     7
370
     0
100
AcDbMText
 10
2830.1820125196
 20
142.1449358799
 30
0.0
 40
29.1041666667
 41
0.0
 71
     1
 72
     1
  1
A4
  7
SLDTEXTSTYLE0
 73
     1
 44
1.0
  0
MTEXT
  5
97
330
1F
100
AcDbEntity
  8
0
  6
Continuous
 62
     7
370
     0
100
AcDbMText
 10
2447.8572108176
 20
182.8771937365
 30
0.0
 40
52.9166666667
 41
0.0
 71
     2
 72
     1
  1
Feldmann GmbH
  7
SLDTEXTSTYLE0
 73
     1
 44
1.0
  0
MTEXT
  5
98
330
1F
100
AcDbEntity
  8
0
  6
Continuous
 62
     7
370
     0
100
AcDbMText
 10
1962.5434899658
 20
322.0161239792
 30
0.0
 40
15.0
 41
0.0
 71
     2
 72
     1
  1
Datum
  7
SLDTEXTSTYLE0
 73
     1
 44
1.0
  0
MTEXT
  5
99
330
1F
100
AcDbEntity
  8
0
  6
Continuous
 62
     7
370
     0
100
AcDbMText
 10
1800.2675095033
 20
258.7493046935
 30
0.0
 40
15.0
 41
0.0
 71
     1
 72
     1
  1
CH
  7
SLDTEXTSTYLE0
 73
     1
 44
1.0
  0
MTEXT
  5
9A
330
1F
100
AcDbEntity
  8
0
  6
Continuous
 62
     7
370
     0
100
AcDbMText
 10
1913.972993064
 20
258.7696708294
 30
0.0
 40
15.0
 41
0.0
 71
     1
 72
     1
  1
28.07.2014
  7
SLDTEXTSTYLE0
 73
     1
 44
1.0
  0
MTEXT
  5
9B
330
1F
100
AcDbEntity
  8
0
  6
Continuous
 62
     7
370
     0
100
AcDbMText
 10
1816.1442713208
 20
79.1300349076
 30
0.0
 40
15.0
 41
0.0
 71
     2
 72
     1
  1
Gewicht 1.225 kg
  7
SLDTEXTSTYLE0
 73
     1
 44
1.0
  0
MTEXT
  5
9C
330
1F
100
AcDbEntity
  8
0
  6
Continuous
 62
     7
370
     0
100
AcDbMText
 10
1817.3958841428
 20
155.5600525994
 30
0.0
 40
23.8125
 41
0.0
 71
     2
 72
     1
  1
1.4301 (X5CrNi18-10)
  7
SLDTEXTSTYLE0
 73
     1
 44
1.0
  0
MTEXT
  5
9D
330
1F
100
AcDbEntity
  8
0
  6
Continuous
 62
     7
370
     0
100
AcDbMText
 10
2304.5961926597
 20
293.8995655835
 30
0.0
 40
42.3333333333
 41
0.0
 71
     2
 72
     1
  1
56307-240
  7
SLDTEXTSTYLE0
 73
     1
 44
1.0
  0
MTEXT
  5
9E
330
1F
100
AcDbEntity
  8
0
  6
Continuous
 62
     7
370
     0
100
AcDbMText
 10
1817.5300178247
 20
320.5960613129
 30
0.0
 40
15.0
 41
0.0
 71
     2
 72
     1
  1
Signatur
  7
SLDTEXTSTYLE0
 73
     1
 44
1.0
  0
LINE
  5
9F
330
1F
100
AcDbEntity
  8
0
  6
Continuous
 62
     7
370
    15
100
AcDbLine
 10
944.951105848
 20
811.9092996556
 30
0.0
 11
944.951105848
 21
1196.9092996556
 31
0.0
  0
LINE
  5
A0
330
1F
100
AcDbEntity
  8
0
  6
Continuous
 62
     7
370
    15
100
AcDbLine
 10
932.951105848
 20
1196.9092996556
 30
0.0
 11
932.951105848
 21
811.9092996556
 31
0.0
  0
LINE
  5
A1
330
1F
100
AcDbEntity
  8
0
  6
Continuous
 62
     7
370
    15
100
AcDbLine
 10
977.9485805311
 20
1252.6763269603
 30
0.0
 11
948.9572025024
 21
1223.6849489317
 31
0.0
  0
LINE
  5
A2
330
1F
100
AcDbEntity
  8
0
  6
Continuous
 62
     7
370
    15
100
AcDbLine
 10
957.4424838767
 20
1215.1996675574
 30
0.0
 11
986.4338619053
 21
1244.1910455861
 31
0.0
  0
LINE
  5
A3
330
1F
100
AcDbEntity
  8
0
  6
Continuous
 62
     7
370
    15
100
AcDbLine
 10
954.6091073858
 20
1411.4523082446
 30
0.0
 11
949.0516109114
 21
1417.009804719
 31
0.0
  0
LINE
  5
A4
330
1F
100
AcDbEntity
  8
0
  6
Continuous
 62
     7
370
    15
100
AcDbLine
 10
940.5663295372
 20
1408.5245233447
 30
0.0
 11
946.1238260116
 21
1402.9670268703
 31
0.0
  0
LINE
  5
A5
330
1F
100
AcDbEntity
  8
0
  6
Continuous
 62
     7
370
    15
100
AcDbLine
 10
932.951105848
 20
1811.9092996556
 30
0.0
 11
932.951105848
 21
1426.9092996556
 31
0.0
  0
LINE
  5
A6
330
1F
100
AcDbEntity
  8
0
  6
Continuous
 62
     7
370
    15
100
AcDbLine
 10
944.951105848
 20
1426.9092996556
 30
0.0
 11
944.951105848
 21
1811.9092996556
 31
0.0
  0
LINE
  5
A7
330
1F
100
AcDbEntity
  8
0
  6
Continuous
 62
     7
370
    15
100
AcDbLine
 10
946.1287753777
 20
1220.8565218069
 30
0.0
 11
940.5663295372
 21
1215.2940759664
 31
0.0
  0
LINE
  5
A8
330
1F
100
AcDbEntity
  8
0
  6
Continuous
 62
     7
370
    15
100
AcDbLine
 10
949.0516109114
 20
1206.8087945922
 30
0.0
 11
954.6140567519
 21
1212.3712404327
 31
0.0
  0
ARC
  5
A9
330
1F
100
AcDbEntity
  8
0
  6
Continuous
 62
     7
370
    15
100
AcDbCircle
 10
958.951105848
 20
1196.9092996556
 30
0.0
 40
13.99999999999989
100
AcDbArc
 50
135.0
 51
180.0
  0
ARC
  5
AA
330
1F
100
AcDbEntity
  8
0
  6
Continuous
 62
     7
370
    15
100
AcDbCircle
 10
958.951105848
 20
1196.9092996556
 30
0.0
 40
26.00000000000013
100
AcDbArc
 50
135.0
 51
180.0
  0
LINE
  5
AB
330
1F
100
AcDbEntity
  8
0
  6
Continuous
 62
     7
370
    15
100
AcDbLine
 10
1032.951105848
 20
1333.1103097823
 30
0.0
 11
1020.5877961965
 21
1345.4736194339
 31
0.0
  0
LINE
  5
AC
330
1F
100
AcDbEntity
  8
0
  6
Continuous
 62
     7
370
    15
100
AcDbLine
 10
1012.1025148222
 20
1336.9883380596
 30
0.0
 11
1024.4658244738
 21
1324.6250284081
 31
0.0
  0
ARC
  5
AD
330
1F
100
AcDbEntity
  8
0
  6
Continuous
 62
     7
370
    15
100
AcDbCircle
 10
958.951105848
 20
1426.9092996556
 30
0.0
 40
14.00000000000011
100
AcDbArc
 50
180.0
 51
225.0
  0
ARC
  5
AE
330
1F
100
AcDbEntity
  8
0
  6
Continuous
 62
     7
370
    15
100
AcDbCircle
 10
958.951105848
 20
1426.9092996556
 30
0.0
 40
26.00000000000011
100
AcDbArc
 50
180.0
 51
225.0
  0
LINE
  5
AF
330
1F
100
AcDbEntity
  8
0
  6
Continuous
 62
     7
370
    15
100
AcDbLine
 10
1017.7593690717
 20
1348.3020465586
 30
0.0
 11
989.2573396639
 21
1376.8040759664
 31
0.0
  0
LINE
  5
B0
330
1F
100
AcDbEntity
  8
0
  6
Continuous
 62
     7
370
    15
100
AcDbLine
 10
980.7720582897
 20
1368.3187945922
 30
0.0
 11
1009.2740876975
 21
1339.8167651844
 31
0.0
  0
LINE
  5
B1
330
1F
100
AcDbEntity
  8
0
  6
Continuous
 62
     7
370
    15
100
AcDbLine
 10
1009.2790370636
 20
1284.0067834929
 30
0.0
 11
980.7770076558
 21
1255.5047540851
 31
0.0
  0
LINE
  5
B2
330
1F
100
AcDbEntity
  8
0
  6
Continuous
 62
     7
370
    15
100
AcDbLine
 10
989.26228903
 20
1247.0194727108
 30
0.0
 11
1017.7643184378
 21
1275.5215021186
 31
0.0
  0
LINE
  5
B3
330
1F
100
AcDbEntity
  8
0
  6
Continuous
 62
     7
370
    15
100
AcDbLine
 10
986.4289125392
 20
1379.6325030912
 30
0.0
 11
957.4375345105
 21
1408.6238811198
 31
0.0
  0
LINE
  5
B4
330
1F
100
AcDbEntity
  8
0
  6
Continuous
 62
     7
370
    15
100
AcDbLine
 10
948.9522531363
 20
1400.1385997456
 30
0.0
 11
977.9436311649
 21
1371.1472217169
 31
0.0
  0
LINE
  5
B5
330
1F
100
AcDbEntity
  8
0
  6
Continuous
 62
     7
370
    15
100
AcDbLine
 10
1024.4658244738
 20
1299.193570903
 30
0.0
 11
1012.1074641884
 21
1286.8352106176
 31
0.0
  0
LINE
  5
B6
330
1F
100
AcDbEntity
  8
0
  6
Continuous
 62
     7
370
    15
100
AcDbLine
 10
1020.5927455626
 20
1278.3499292434
 30
0.0
 11
1032.951105848
 21
1290.7082895288
 31
0.0
  0
LINE
  5
B7
330
1F
100
AcDbEntity
  8
0
  6
Continuous
 62
     7
370
    15
100
AcDbLine
 10
970.7781549441
 20
1358.3248912466
 30
0.0
 11
995.882231345
 21
1383.4289676474
 31
0.0
  0
ARC
  5
B8
330
1F
100
AcDbEntity
  8
0
  6
Continuous
 62
     7
370
    15
100
AcDbCircle
 10
972.8994752877
 20
1356.203570903
 30
0.0
 40
3.0
100
AcDbArc
 50
135.0
 51
180.0
  0
LINE
  5
B9
330
1F
100
AcDbEntity
  8
0
  6
Continuous
 62
     7
370
    15
100
AcDbLine
 10
969.8994752877
 20
1267.6249271403
 30
0.0
 11
969.8994752877
 21
1356.203570903
 31
0.0
  0
ARC
  5
BA
330
1F
100
AcDbEntity
  8
0
  6
Continuous
 62
     7
370
    15
100
AcDbCircle
 10
972.8994752877
 20
1267.6249271403
 30
0.0
 40
3.0
100
AcDbArc
 50
180.0
 51
225.0
  0
LINE
  5
BB
330
1F
100
AcDbEntity
  8
0
  6
Continuous
 62
     7
370
    15
100
AcDbLine
 10
995.882231345
 20
1240.3995303959
 30
0.0
 11
970.7781549441
 21
1265.5036067968
 31
0.0
  0
LINE
  5
BC
330
1F
100
AcDbEntity
  8
0
  6
Continuous
 62
     7
370
    15
100
AcDbLine
 10
993.0538042202
 20
1237.5711032712
 30
0.0
 11
995.882231345
 21
1240.3995303959
 31
0.0
  0
LINE
  5
BD
330
1F
100
AcDbEntity
  8
0
  6
Continuous
 62
     7
370
    15
100
AcDbLine
 10
967.6568346005
 20
1262.9680728908
 30
0.0
 11
993.0538042202
 21
1237.5711032712
 31
0.0
  0
ARC
  5
BE
330
1F
100
AcDbEntity
  8
0
  6
Continuous
 62
     7
370
    15
100
AcDbCircle
 10
971.8994752877
 20
1267.210713578
 30
0.0
 40
6.000000000000049
100
AcDbArc
 50
180.0
 51
225.0
  0
LINE
  5
BF
330
1F
100
AcDbEntity
  8
0
  6
Continuous
 62
     7
370
    15
100
AcDbLine
 10
965.8994752877
 20
1356.6177844654
 30
0.0
 11
965.8994752877
 21
1267.210713578
 31
0.0
  0
ARC
  5
C0
330
1F
100
AcDbEntity
  8
0
  6
Continuous
 62
     7
370
    15
100
AcDbCircle
 10
971.8994752877
 20
1356.6177844654
 30
0.0
 40
6.000000000000049
100
AcDbArc
 50
135.0
 51
180.0
  0
LINE
  5
C1
330
1F
100
AcDbEntity
  8
0
  6
Continuous
 62
     7
370
    15
100
AcDbLine
 10
993.0538042202
 20
1386.2573947722
 30
0.0
 11
967.6568346005
 21
1360.8604251525
 31
0.0
  0
LINE
  5
C2
330
1F
100
AcDbEntity
  8
0
  6
Continuous
 62
     7
370
    15
100
AcDbLine
 10
995.882231345
 20
1383.4289676474
 30
0.0
 11
993.0538042202
 21
1386.2573947722
 31
0.0
  0
LINE
  5
C3
330
1F
100
AcDbEntity
  8
0
  6
Continuous
 62
     7
370
    15
100
AcDbLine
 10
964.0624261916
 20
1208.5797252425
 30
0.0
 11
940.7781549441
 21
1231.86399649
 31
0.0
  0
ARC
  5
C4
330
1F
100
AcDbEntity
  8
0
  6
Continuous
 62
     7
370
    15
100
AcDbCircle
 10
942.8994752877
 20
1233.9853168336
 30
0.0
 40
3.0
100
AcDbArc
 50
180.0
 51
225.0
  0
LINE
  5
C5
330
1F
100
AcDbEntity
  8
0
  6
Continuous
 62
     7
370
    15
100
AcDbLine
 10
939.8994752877
 20
1233.9853168336
 30
0.0
 11
939.8994752877
 21
1389.8431812098
 31
0.0
  0
ARC
  5
C6
330
1F
100
AcDbEntity
  8
0
  6
Continuous
 62
     7
370
    15
100
AcDbCircle
 10
942.8994752877
 20
1389.8431812098
 30
0.0
 40
3.000000000000114
100
AcDbArc
 50
135.0
 51
180.0
  0
LINE
  5
C7
330
1F
100
AcDbEntity
  8
0
  6
Continuous
 62
     7
370
    15
100
AcDbLine
 10
964.0624261916
 20
1415.2487728008
 30
0.0
 11
961.2339990668
 21
1418.0771999256
 31
0.0
  0
ARC
  5
C8
330
1F
100
AcDbEntity
  8
0
  6
Continuous
 62
     7
370
    15
100
AcDbCircle
 10
941.8994752877
 20
1390.2573947722
 30
0.0
 40
5.999999999999968
100
AcDbArc
 50
135.0
 51
180.0
  0
LINE
  5
C9
330
1F
100
AcDbEntity
  8
0
  6
Continuous
 62
     7
370
    15
100
AcDbLine
 10
935.8994752877
 20
1390.2573947722
 30
0.0
 11
935.8994752877
 21
1233.5711032712
 31
0.0
  0
ARC
  5
CA
330
1F
100
AcDbEntity
  8
0
  6
Continuous
 62
     7
370
    15
100
AcDbCircle
 10
941.8994752877
 20
1233.5711032712
 30
0.0
 40
6.000000000000114
100
AcDbArc
 50
180.0
 51
225.0
  0
LINE
  5
CB
330
1F
100
AcDbEntity
  8
0
  6
Continuous
 62
     7
370
    15
100
AcDbLine
 10
937.6568346005
 20
1229.3284625841
 30
0.0
 11
961.2339990668
 21
1205.7512981178
 31
0.0
  0
LINE
  5
CC
330
1F
100
AcDbEntity
  8
0
  6
Continuous
 62
     7
370
    15
100
AcDbLine
 10
961.2339990668
 20
1205.7512981178
 30
0.0
 11
964.0624261916
 21
1208.5797252425
 31
0.0
  0
LINE
  5
CD
330
1F
100
AcDbEntity
  8
0
  6
Continuous
 62
     7
370
    15
100
AcDbLine
 10
940.7781549441
 20
1391.9645015534
 30
0.0
 11
964.0624261916
 21
1415.2487728008
 31
0.0
  0
LINE
  5
CE
330
1F
100
AcDbEntity
  8
0
  6
Continuous
 62
     7
370
    15
100
AcDbLine
 10
961.2339990668
 20
1418.0771999256
 30
0.0
 11
937.6568346005
 21
1394.5000354593
 31
0.0
  0
LINE
  5
CF
330
1F
100
AcDbEntity
  8
0
  6
Continuous
 62
     7
370
    15
100
AcDbLine
 10
995.8994752877
 20
1323.9568714003
 30
0.0
 11
995.8994752877
 21
1299.8716266431
 31
0.0
  0
ARC
  5
D0
330
1F
100
AcDbEntity
  8
0
  6
Continuous
 62
     7
370
    15
100
AcDbCircle
 10
1001.8994752877
 20
1323.9568714003
 30
0.0
 40
6.0
100
AcDbArc
 50
135.0
 51
180.0
  0
ARC
  5
D1
330
1F
100
AcDbEntity
  8
0
  6
Continuous
 62
     7
370
    15
100
AcDbCircle
 10
1001.8994752877
 20
1299.8716266431
 30
0.0
 40
6.000000000000049
100
AcDbArc
 50
180.0
 51
225.0
  0
ARC
  5
D2
330
1F
100
AcDbEntity
  8
0
  6
Continuous
 62
     7
370
    15
100
AcDbCircle
 10
1002.8994752877
 20
1323.5426578379
 30
0.0
 40
3.0
100
AcDbArc
 50
135.0
 51
180.0
  0
LINE
  5
D3
330
1F
100
AcDbEntity
  8
0
  6
Continuous
 62
     7
370
    15
100
AcDbLine
 10
1027.2126878775
 20
1352.0985111149
 30
0.0
 11
1024.3842607528
 21
1354.9269382396
 31
0.0
  0
LINE
  5
D4
330
1F
100
AcDbEntity
  8
0
  6
Continuous
 62
     7
370
    15
100
AcDbLine
 10
1024.3842607528
 20
1354.9269382396
 30
0.0
 11
997.6568346005
 21
1328.1995120874
 31
0.0
  0
LINE
  5
D5
330
1F
100
AcDbEntity
  8
0
  6
Continuous
 62
     7
370
    15
100
AcDbLine
 10
1000.7781549441
 20
1325.6639781815
 30
0.0
 11
1027.2126878775
 21
1352.0985111149
 31
0.0
  0
LINE
  5
D6
330
1F
100
AcDbEntity
  8
0
  6
Continuous
 62
     7
370
    15
100
AcDbLine
 10
1024.3842607528
 20
1268.9015598037
 30
0.0
 11
1027.2126878775
 21
1271.7299869285
 31
0.0
  0
LINE
  5
D7
330
1F
100
AcDbEntity
  8
0
  6
Continuous
 62
     7
370
    15
100
AcDbLine
 10
1027.2126878775
 20
1271.7299869285
 30
0.0
 11
1000.7781549441
 21
1298.1645198619
 31
0.0
  0
ARC
  5
D8
330
1F
100
AcDbEntity
  8
0
  6
Continuous
 62
     7
370
    15
100
AcDbCircle
 10
1002.8994752877
 20
1300.2858402054
 30
0.0
 40
3.0
100
AcDbArc
 50
180.0
 51
225.0
  0
LINE
  5
D9
330
1F
100
AcDbEntity
  8
0
  6
Continuous
 62
     7
370
    15
100
AcDbLine
 10
999.8994752877
 20
1300.2858402054
 30
0.0
 11
999.8994752877
 21
1323.5426578379
 31
0.0
  0
LINE
  5
DA
330
1F
100
AcDbEntity
  8
0
  6
Continuous
 62
     7
370
    15
100
AcDbLine
 10
997.6568346005
 20
1295.6289859559
 30
0.0
 11
1024.3842607528
 21
1268.9015598037
 31
0.0
  0
LINE
  5
DB
330
1F
100
AcDbEntity
  8
0
  6
Continuous
 62
     7
370
    15
100
AcDbLine
 10
938.951105848
 20
811.9092996556
 30
0.0
 11
944.951105848
 21
811.9092996556
 31
0.0
  0
LINE
  5
DC
330
1F
100
AcDbEntity
  8
0
  6
Continuous
 62
     7
370
    15
100
AcDbLine
 10
932.951105848
 20
811.9092996556
 30
0.0
 11
938.951105848
 21
811.9092996556
 31
0.0
  0
LINE
  5
DD
330
1F
100
AcDbEntity
  8
0
  6
Continuous
 62
     7
370
    15
100
AcDbLine
 10
938.951105848
 20
1811.9092996556
 30
0.0
 11
944.951105848
 21
1811.9092996556
 31
0.0
  0
LINE
  5
DE
330
1F
100
AcDbEntity
  8
0
  6
Continuous
 62
     7
370
    15
100
AcDbLine
 10
932.951105848
 20
1811.9092996556
 30
0.0
 11
938.951105848
 21
1811.9092996556
 31
0.0
  0
LINE
  5
DF
330
1F
100
AcDbEntity
  8
0
  6
Continuous
 62
     7
370
    15
100
AcDbLine
 10
1028.7084651609
 20
1328.8676690952
 30
0.0
 11
1032.951105848
 21
1333.1103097823
 31
0.0
  0
LINE
  5
E0
330
1F
100
AcDbEntity
  8
0
  6
Continuous
 62
     7
370
    15
100
AcDbLine
 10
1024.4658244738
 20
1324.6250284081
 30
0.0
 11
1028.7084651609
 21
1328.8676690952
 31
0.0
  0
LINE
  5
E1
330
1F
100
AcDbEntity
  8
0
  6
Continuous
 62
     7
370
    15
100
AcDbLine
 10
1028.7084651609
 20
1294.9509302159
 30
0.0
 11
1032.951105848
 21
1290.7082895288
 31
0.0
  0
LINE
  5
E2
330
1F
100
AcDbEntity
  8
0
  6
Continuous
 62
     7
370
    15
100
AcDbLine
 10
1024.4658244738
 20
1299.193570903
 30
0.0
 11
1028.7084651609
 21
1294.9509302159
 31
0.0
  0
LINE
  5
E3
330
1F
100
AcDbEntity
  8
0
  6
Continuous
 62
     8
370
    15
100
AcDbLine
 10
938.951105848
 20
1196.9092996556
 30
0.0
 11
944.951105848
 21
1196.9092996556
 31
0.0
  0
LINE
  5
E4
330
1F
100
AcDbEntity
  8
0
  6
Continuous
 62
     8
370
    15
100
AcDbLine
 10
932.951105848
 20
1196.9092996556
 30
0.0
 11
938.951105848
 21
1196.9092996556
 31
0.0
  0
LINE
  5
E5
330
1F
100
AcDbEntity
  8
0
  6
Continuous
 62
     8
370
    15
100
AcDbLine
 10
944.8089702243
 20
1412.7671640318
 30
0.0
 11
949.0516109114
 21
1417.009804719
 31
0.0
  0
LINE
  5
E6
330
1F
100
AcDbEntity
  8
0
  6
Continuous
 62
     8
370
    15
100
AcDbLine
 10
940.5663295372
 20
1408.5245233447
 30
0.0
 11
944.8089702243
 21
1412.7671640318
 31
0.0
  0
LINE
  5
E7
330
1F
100
AcDbEntity
  8
0
  6
Continuous
 62
     8
370
    15
100
AcDbLine
 10
938.951105848
 20
1426.9092996556
 30
0.0
 11
944.951105848
 21
1426.9092996556
 31
0.0
  0
LINE
  5
E8
330
1F
100
AcDbEntity
  8
0
  6
Continuous
 62
     8
370
    15
100
AcDbLine
 10
932.951105848
 20
1426.9092996556
 30
0.0
 11
938.951105848
 21
1426.9092996556
 31
0.0
  0
LINE
  5
E9
330
1F
100
AcDbEntity
  8
0
  6
Continuous
 62
     8
370
    15
100
AcDbLine
 10
944.8089702243
 20
1211.0514352793
 30
0.0
 11
949.0516109114
 21
1206.8087945922
 31
0.0
  0
LINE
  5
EA
330
1F
100
AcDbEntity
  8
0
  6
Continuous
 62
     8
370
    15
100
AcDbLine
 10
940.5663295372
 20
1215.2940759664
 30
0.0
 11
944.8089702243
 21
1211.0514352793
 31
0.0
  0
LINE
  5
EB
330
1F
100
AcDbEntity
  8
0
  6
Continuous
 62
     7
370
    15
100
AcDbLine
 10
2195.0729734843
 20
1701.884204367
 30
0.0
 11
2195.0729734843
 21
1371.8747935967
 31
0.0
  0
LINE
  5
EC
330
1F
100
AcDbEntity
  8
0
  6
Continuous
 62
     7
370
    15
100
AcDbLine
 10
2207.0729734843
 20
1371.8747935967
 30
0.0
 11
2207.0729734843
 21
1701.884204367
 31
0.0
  0
LINE
  5
ED
330
1F
100
AcDbEntity
  8
0
  6
Continuous
 62
     7
370
    15
100
AcDbLine
 10
2243.982849462
 20
1321.0864938333
 30
0.0
 11
2219.1915885907
 21
1351.8516162283
 31
0.0
  0
LINE
  5
EE
330
1F
100
AcDbEntity
  8
0
  6
Continuous
 62
     7
370
    15
100
AcDbLine
 10
2209.4080498869
 20
1344.8678151165
 30
0.0
 11
2234.6390261221
 21
1313.5570207181
 31
0.0
  0
LINE
  5
EF
330
1F
100
AcDbEntity
  8
0
  6
Continuous
 62
     7
370
    15
100
AcDbLine
 10
2271.6920729798
 20
1286.7002777622
 30
0.0
 11
2247.3336008966
 21
1316.9283238017
 31
0.0
  0
LINE
  5
F0
330
1F
100
AcDbEntity
  8
0
  6
Continuous
 62
     7
370
    15
100
AcDbLine
 10
2237.5500621929
 20
1309.9445226899
 30
0.0
 11
2262.3482496399
 21
1279.1708046471
 31
0.0
  0
SPLINE
  5
F1
330
1F
100
AcDbEntity
  8
0
  6
Continuous
 62
     7
370
    15
100
AcDbSpline
210
0.0
220
0.0
230
1.0
 70
     8
 71
     3
 72
    15
 73
    11
 74
     0
 42
0.000000001
 43
0.00000001
 40
0.0
 40
0.0
 40
0.0
 40
0.0
 40
0.0858135852302353
 40
0.2306554708199808
 40
0.3761731881686038
 40
0.5225903891679037
 40
0.6696056622798321
 40
0.8169879164777787
 40
0.957265521368694
 40
1.0
 40
1.0
 40
1.0
 40
1.0
 10
2195.072973484311
 20
1371.874793596666
 30
0.0
 10
2195.083385890985
 20
1371.361428144872
 30
0.0
 10
2195.111373051262
 20
1369.981570285903
 30
0.0
 10
2195.400642134927
 20
1367.709672178388
 30
0.0
 10
2196.00599436221
 20
1365.081302526264
 30
0.0
 10
2196.896062399681
 20
1362.47440081376
 30
0.0
 10
2198.054345264156
 20
1359.9197479394
 30
0.0
 10
2199.446182427563
 20
1357.492457149087
 30
0.0
 10
2200.669803807696
 20
1355.73062477187
 30
0.0
 10
2201.40920773174
 20
1354.797695007267
 30
0.0
 10
2201.581863223028
 20
1354.579850008605
 30
0.0
  0
SPLINE
  5
F2
330
1F
100
AcDbEntity
  8
0
  6
Continuous
 62
     7
370
    15
100
AcDbSpline
210
0.0
220
0.0
230
1.0
 70
     8
 71
     3
 72
    14
 73
    10
 74
     0
 42
0.000000001
 43
0.00000001
 40
0.0
 40
0.0
 40
0.0
 40
0.0
 40
0.0850076401173279
 40
0.2575236779081966
 40
0.4296032148570226
 40
0.6011319306752075
 40
0.7723270052212624
 40
0.9436048071485663
 40
1.0
 40
1.0
 40
1.0
 40
1.0
 10
2210.925686562996
 20
1362.109323123734
 30
0.0
 10
2210.718234826723
 20
1362.374967540423
 30
0.0
 10
2210.089776795894
 20
1363.179715526688
 30
0.0
 10
2209.179804669156
 20
1364.594544415522
 30
0.0
 10
2208.293941775435
 20
1366.339142061185
 30
0.0
 10
2207.642084969031
 20
1368.086579041582
 30
0.0
 10
2207.229457351858
 20
1369.78655730062
 30
0.0
 10
2207.084842354746
 20
1371.040179909265
 30
0.0
 10
2207.075329775041
 20
1371.709100281092
 30
0.0
 10
2207.072973484311
 20
1371.874793596666
 30
0.0
  0
LINE
  5
F3
330
1F
100
AcDbEntity
  8
0
  6
Continuous
 62
     7
370
    15
100
AcDbLine
 10
2215.8408371561
 20
1356.0097862598
 30
0.0
 11
2210.925686563
 21
1362.1093231237
 31
0.0
  0
LINE
  5
F4
330
1F
100
AcDbEntity
  8
0
  6
Continuous
 62
     7
370
    15
100
AcDbLine
 10
2201.581863223
 20
1354.5798500086
 30
0.0
 11
2206.4970138161
 21
1348.4803131447
 31
0.0
  0
LINE
  5
F5
330
1F
100
AcDbEntity
  8
0
  6
Continuous
 62
     7
370
    15
100
AcDbLine
 10
2285.1279202845
 20
1270.0268423547
 30
0.0
 11
2275.0428244144
 21
1282.5421077307
 31
0.0
  0
LINE
  5
F6
330
1F
100
AcDbEntity
  8
0
  6
Continuous
 62
     7
370
    15
100
AcDbLine
 10
2265.2592857107
 20
1275.5583066189
 30
0.0
 11
2275.7840969445
 21
1262.4973692395
 31
0.0
  0
LINE
  5
F7
330
1F
100
AcDbEntity
  8
0
  6
Continuous
 62
     7
370
    15
100
AcDbLine
 10
2204.1566497835
 20
1348.5981700695
 30
0.0
 11
2194.8227420049
 21
1339.4879899334
 31
0.0
  0
LINE
  5
F8
330
1F
100
AcDbEntity
  8
0
  6
Continuous
 62
     7
370
    15
100
AcDbLine
 10
2230.6891934339
 20
1312.5524192656
 30
0.0
 11
2221.3552856553
 21
1303.4422391295
 31
0.0
  0
LINE
  5
F9
330
1F
100
AcDbEntity
  8
0
  6
Continuous
 62
     7
370
    15
100
AcDbLine
 10
2257.2217370842
 20
1277.3455757346
 30
0.0
 11
2247.8878293056
 21
1268.2353955985
 31
0.0
  0
LINE
  5
FA
330
1F
100
AcDbEntity
  8
0
  6
Continuous
 62
     7
370
    15
100
AcDbLine
 10
2277.0237967412
 20
1242.1111602436
 30
0.0
 11
2266.0938389506
 21
1234.4885062434
 31
0.0
  0
LINE
  5
FB
330
1F
100
AcDbEntity
  8
0
  6
Continuous
 62
     7
370
    15
100
AcDbLine
 10
2272.9582626972
 20
1224.645758323
 30
0.0
 11
2283.8882204879
 21
1232.2684123231
 31
0.0
  0
LINE
  5
FC
330
1F
100
AcDbEntity
  8
0
  6
Continuous
 62
     7
370
    15
100
AcDbLine
 10
2257.9129647014
 20
1228.7830886184
 30
0.0
 11
2238.3846154328
 21
1215.163836603
 31
0.0
  0
LINE
  5
FD
330
1F
100
AcDbEntity
  8
0
  6
Continuous
 62
     7
370
    15
100
AcDbLine
 10
2245.2490391794
 20
1205.3210886825
 30
0.0
 11
2265.4605524569
 21
1219.4167856178
 31
0.0
  0
LINE
  5
FE
330
1F
100
AcDbEntity
  8
0
  6
Continuous
 62
     7
370
    15
100
AcDbLine
 10
2230.2037411836
 20
1209.4584189779
 30
0.0
 11
2210.2426031268
 21
1195.5373360451
 31
0.0
  0
LINE
  5
FF
330
1F
100
AcDbEntity
  8
0
  6
Continuous
 62
     7
370
    15
100
AcDbLine
 10
2217.1070268735
 20
1185.6945881246
 30
0.0
 11
2237.7513289391
 21
1200.0921159774
 31
0.0
  0
SPLINE
  5
100
330
1F
100
AcDbEntity
  8
0
  6
Continuous
 62
     7
370
    15
100
AcDbSpline
210
0.0
220
0.0
230
1.0
 70
     8
 71
     3
 72
    13
 73
     9
 74
     0
 42
0.000000001
 43
0.00000001
 40
0.0
 40
0.0
 40
0.0
 40
0.0
 40
0.0844998575934078
 40
0.2639475516758276
 40
0.4471967021461783
 40
0.6398322036967565
 40
0.8474871072354951
 40
1.0
 40
1.0
 40
1.0
 40
1.0
 10
2207.07297348431
 20
1174.726314435175
 30
0.0
 10
2207.077943865576
 20
1174.963502073772
 30
0.0
 10
2207.093469571816
 20
1175.704392038305
 30
0.0
 10
2207.271316135863
 20
1176.838825066977
 30
0.0
 10
2207.661803239092
 20
1178.051717871306
 30
0.0
 10
2208.235960552143
 20
1179.103207904185
 30
0.0
 10
2208.905048692782
 20
1179.918695981
 30
0.0
 10
2209.453672331244
 20
1180.340481143111
 30
0.0
 10
2209.685986766349
 20
1180.519085881954
 30
0.0
  0
SPLINE
  5
101
330
1F
100
AcDbEntity
  8
0
  6
Continuous
 62
     7
370
    15
100
AcDbSpline
210
0.0
220
0.0
230
1.0
 70
     8
 71
     3
 72
    15
 73
    11
 74
     0
 42
0.000000001
 43
0.00000001
 40
0.0
 40
0.0
 40
0.0
 40
0.0
 40
0.0352100269414134
 40
0.1740563348566876
 40
0.3124772148044533
 40
0.4507221406415574
 40
0.5894023720726456
 40
0.7290609454827132
 40
0.8700884756797019
 40
1.0
 40
1.0
 40
1.0
 40
1.0
 10
2202.086831078939
 20
1189.800767431055
 30
0.0
 10
2201.92723735288
 20
1189.681229241997
 30
0.0
 10
2201.138305862707
 20
1189.090307255562
 30
0.0
 10
2199.877207354723
 20
1187.84093941453
 30
0.0
 10
2198.399099765814
 20
1186.006742048155
 30
0.0
 10
2197.183137995528
 20
1183.976728780985
 30
0.0
 10
2196.227336197818
 20
1181.790117987016
 30
0.0
 10
2195.549406483995
 20
1179.464580527947
 30
0.0
 10
2195.143899896613
 20
1177.100163153024
 30
0.0
 10
2195.095960000541
 20
1175.49565423839
 30
0.0
 10
2195.07297348431
 20
1174.726314435175
 30
0.0
  0
LINE
  5
102
330
1F
100
AcDbEntity
  8
0
  6
Continuous
 62
     7
370
    15
100
AcDbLine
 10
2207.0729734843
 20
844.7169036649
 30
0.0
 11
2207.0729734843
 21
1174.7263144352
 31
0.0
  0
LINE
  5
103
330
1F
100
AcDbEntity
  8
0
  6
Continuous
 62
     7
370
    15
100
AcDbLine
 10
2195.0729734843
 20
1174.7263144352
 30
0.0
 11
2195.0729734843
 21
844.7169036649
 31
0.0
  0
LWPOLYLINE
  5
104
330
1F
100
AcDbEntity
  8
0
  6
Continuous
 62
     7
370
    15
100
AcDbPolyline
 90
       26
 70
   128
 43
0.0
 10
2198.2728011507
 20
1699.1511503262
 10
2199.6804487711
 20
1698.8783548412
 10
2201.1755938405
 20
1698.7944279367
 10
2202.6642908955
 20
1698.9046430488
 10
2204.0529996251
 20
1699.2020749565
 10
2205.2544623526
 20
1699.6680349192
 10
2206.193186756
 20
1700.2732449589
 10
2206.8101893287
 20
1700.9796775028
 10
2207.0667015299
 20
1701.7429447963
 10
2206.9466057546
 20
1702.5150879481
 10
2206.457448062
 20
1703.2475903643
 10
2205.6299640291
 20
1703.894426224
 10
2204.5161475207
 20
1704.4149524515
 10
2203.1859837246
 20
1704.7764624693
 10
2201.7230517239
 20
1704.9562412736
 10
2200.2192729167
 20
1704.9429927009
 10
2198.7691352557
 20
1704.7375492077
 10
2197.4637562237
 20
1704.3528195643
 10
2196.3851575858
 20
1703.8129777491
 10
2195.6011116615
 20
1703.1519440088
 10
2195.1608829396
 20
1702.4112535244
 10
2195.0921326097
 20
1701.6374466031
 10
2195.399180508
 20
1700.8791443796
 10
2196.0627336858
 20
1700.1839937714
 10
2197.0410986564
 20
1699.595673648
 10
2198.2728011507
 20
1699.1511503262
  0
LWPOLYLINE
  5
105
330
1F
100
AcDbEntity
  8
0
  6
Continuous
 62
     7
370
    15
100
AcDbPolyline
 90
       15
 70
   128
 43
0.0
 10
2234.6390261221
 20
1313.5570207181
 10
2234.6588020472
 20
1313.5432392854
 10
2234.9361081935
 20
1313.6119761084
 10
2235.488300973
 20
1313.9138121258
 10
2236.2806840825
 20
1314.4297818705
 10
2237.263469177
 20
1315.1274650659
 10
2238.3749042548
 20
1315.9630237108
 10
2239.5451537621
 20
1316.8839565827
 10
2240.7006866187
 20
1317.8323980823
 10
2241.7688964453
 20
1318.748754142
 10
2242.68266369
 20
1319.5754467404
 10
2243.3845729962
 20
1320.2605317413
 10
2243.8305208208
 20
1320.7609627345
 10
2243.9924866218
 20
1321.0452958001
 10
2243.982849462
 20
1321.0864938333
  0
LINE
  5
106
330
1F
100
AcDbEntity
  8
0
  6
Continuous
 62
     7
370
    15
100
AcDbLine
 10
2227.9488341447
 20
1360.3989563548
 30
0.0
 11
2225.4473219397
 21
1363.5032490149
 31
0.0
  0
LINE
  5
107
330
1F
100
AcDbEntity
  8
0
  6
Continuous
 62
     7
370
    15
100
AcDbLine
 10
2227.9488341447
 20
1360.3989563548
 30
0.0
 11
2218.6149263661
 21
1351.2887762187
 31
0.0
  0
LINE
  5
108
330
1F
100
AcDbEntity
  8
0
  6
Continuous
 62
     7
370
    15
100
AcDbLine
 10
2218.6149263661
 20
1351.2887762187
 30
0.0
 11
2216.1134141611
 21
1354.3930688789
 31
0.0
  0
LINE
  5
109
330
1F
100
AcDbEntity
  8
0
  6
Continuous
 62
     7
370
    15
100
AcDbLine
 10
2225.4473219397
 20
1363.5032490149
 30
0.0
 11
2216.1134141611
 21
1354.3930688789
 31
0.0
  0
LINE
  5
10A
330
1F
100
AcDbEntity
  8
0
  6
Continuous
 62
     7
370
    15
100
AcDbLine
 10
2195.2613426494
 20
1198.2709694119
 30
0.0
 11
2216.1134141611
 21
1172.3942487571
 31
0.0
  0
ARC
  5
10B
330
1F
100
AcDbEntity
  8
0
  6
Continuous
 62
     7
370
    15
100
AcDbCircle
 10
2200.3222378629
 20
1202.5359133075
 30
0.0
 40
6.618338673241156
100
AcDbArc
 50
181.7826317692
 51
220.1216831934
  0
LINE
  5
10C
330
1F
100
AcDbEntity
  8
0
  6
Continuous
 62
     7
370
    15
100
AcDbLine
 10
2193.7071022268
 20
1336.636397064
 30
0.0
 11
2193.7071022268
 21
1202.3300315211
 31
0.0
  0
ARC
  5
10D
330
1F
100
AcDbEntity
  8
0
  6
Continuous
 62
     7
370
    15
100
AcDbCircle
 10
2197.5137068754
 20
1336.7786183493
 30
0.0
 40
3.809260537756915
100
AcDbArc
 50
126.2483534284
 51
182.1396734759
  0
LINE
  5
10E
330
1F
100
AcDbEntity
  8
0
  6
Continuous
 62
     7
370
    15
100
AcDbLine
 10
2216.1134141611
 20
1354.3930688789
 30
0.0
 11
2195.2613426494
 21
1339.8506406861
 31
0.0
  0
LINE
  5
10F
330
1F
100
AcDbEntity
  8
0
  6
Continuous
 62
     7
370
    15
100
AcDbLine
 10
2198.0218949248
 20
1336.9270049752
 30
0.0
 11
2218.6149263661
 21
1351.2887762187
 31
0.0
  0
ARC
  5
110
330
1F
100
AcDbEntity
  8
0
  6
Continuous
 62
     7
370
    15
100
AcDbCircle
 10
2199.1480770378
 20
1335.3909938067
 30
0.0
 40
1.904630268879631
100
AcDbArc
 50
126.2483534284
 51
182.1396734758
  0
LINE
  5
111
330
1F
100
AcDbEntity
  8
0
  6
Continuous
 62
     7
370
    15
100
AcDbLine
 10
2197.2447747135
 20
1201.7236182635
 30
0.0
 11
2197.2447747135
 21
1335.3198831641
 31
0.0
  0
ARC
  5
112
330
1F
100
AcDbEntity
  8
0
  6
Continuous
 62
     7
370
    15
100
AcDbCircle
 10
2200.5523425315
 20
1201.8265591567
 30
0.0
 40
3.309169336623772
100
AcDbArc
 50
181.7826317692
 51
220.1216831934
  0
LINE
  5
113
330
1F
100
AcDbEntity
  8
0
  6
Continuous
 62
     7
370
    15
100
AcDbLine
 10
2218.6149263661
 20
1174.1388265845
 30
0.0
 11
2198.0218949248
 21
1199.6940872089
 31
0.0
  0
LINE
  5
114
330
1F
100
AcDbEntity
  8
0
  6
Continuous
 62
     7
370
    15
100
AcDbLine
 10
2216.1134141611
 20
1172.3942487571
 30
0.0
 11
2218.6149263661
 21
1174.1388265845
 31
0.0
  0
LWPOLYLINE
  5
115
330
1F
100
AcDbEntity
  8
0
  6
Continuous
 62
     7
370
    15
100
AcDbPolyline
 90
       15
 70
   128
 43
0.0
 10
2215.8408371561
 20
1356.0097862598
 10
2215.8504743159
 20
1355.9685882267
 10
2215.6885085149
 20
1355.684255161
 10
2215.2425606903
 20
1355.1838241679
 10
2214.5406513841
 20
1354.498739167
 10
2213.6268841394
 20
1353.6720465686
 10
2212.5586743128
 20
1352.7556905089
 10
2211.4031414562
 20
1351.8072490093
 10
2210.2328919488
 20
1350.8863161374
 10
2209.1214568711
 20
1350.0507574925
 10
2208.1386717766
 20
1349.3530742971
 10
2207.3462886671
 20
1348.8371045524
 10
2206.7940958876
 20
1348.535268535
 10
2206.5167897413
 20
1348.4665317119
 10
2206.4970138161
 20
1348.4803131447
  0
LINE
  5
116
330
1F
100
AcDbEntity
  8
0
  6
Continuous
 62
     7
370
    15
100
AcDbLine
 10
2225.4473219397
 20
1363.5032490149
 30
0.0
 11
2215.4313132903
 21
1356.5179916279
 31
0.0
  0
LINE
  5
117
330
1F
100
AcDbEntity
  8
0
  6
Continuous
 62
     7
370
    15
100
AcDbLine
 10
2205.564885381
 20
1349.6370532373
 30
0.0
 11
2204.595250428
 21
1348.9608208222
 31
0.0
  0
LINE
  5
118
330
1F
100
AcDbEntity
  8
0
  6
Continuous
 62
     7
370
    15
100
AcDbLine
 10
2204.595250428
 20
1348.9608208222
 30
0.0
 11
2195.2613426494
 21
1339.8506406861
 31
0.0
  0
LWPOLYLINE
  5
119
330
1F
100
AcDbEntity
  8
0
  6
Continuous
 62
     7
370
    15
100
AcDbPolyline
 90
       15
 70
   128
 43
0.0
 10
2262.3482496399
 20
1279.1708046471
 10
2262.368025565
 20
1279.1570232143
 10
2262.6453317113
 20
1279.2257600373
 10
2263.1975244908
 20
1279.5275960547
 10
2263.9899076003
 20
1280.0435657995
 10
2264.9726926949
 20
1280.7412489948
 10
2266.0841277726
 20
1281.5768076398
 10
2267.2543772799
 20
1282.4977405117
 10
2268.4099101365
 20
1283.4461820112
 10
2269.4781199631
 20
1284.3625380709
 10
2270.3918872078
 20
1285.1892306694
 10
2271.0937965141
 20
1285.8743156703
 10
2271.5397443386
 20
1286.3747466634
 10
2271.7017101396
 20
1286.6590797291
 10
2271.6920729798
 20
1286.7002777622
  0
LINE
  5
11A
330
1F
100
AcDbEntity
  8
0
  6
Continuous
 62
     7
370
    15
100
AcDbLine
 10
2256.0908464506
 20
1325.4756639282
 30
0.0
 11
2253.5893342456
 21
1328.5799565884
 31
0.0
  0
LINE
  5
11B
330
1F
100
AcDbEntity
  8
0
  6
Continuous
 62
     7
370
    15
100
AcDbLine
 10
2256.0908464506
 20
1325.4756639282
 30
0.0
 11
2246.756938672
 21
1316.3654837921
 31
0.0
  0
LINE
  5
11C
330
1F
100
AcDbEntity
  8
0
  6
Continuous
 62
     7
370
    15
100
AcDbLine
 10
2246.756938672
 20
1316.3654837921
 30
0.0
 11
2244.255426467
 21
1319.4697764523
 31
0.0
  0
LINE
  5
11D
330
1F
100
AcDbEntity
  8
0
  6
Continuous
 62
     7
370
    15
100
AcDbLine
 10
2253.5893342456
 20
1328.5799565884
 30
0.0
 11
2244.255426467
 21
1319.4697764523
 31
0.0
  0
LINE
  5
11E
330
1F
100
AcDbEntity
  8
0
  6
Continuous
 62
     7
370
    15
100
AcDbLine
 10
2224.5544385751
 20
1300.8812541713
 30
0.0
 11
2246.756938672
 21
1316.3654837921
 31
0.0
  0
ARC
  5
11F
330
1F
100
AcDbEntity
  8
0
  6
Continuous
 62
     7
370
    15
100
AcDbCircle
 10
2225.6806206881
 20
1299.3452430029
 30
0.0
 40
1.904630268876438
100
AcDbArc
 50
126.2483534283
 51
182.1396734759
  0
LINE
  5
120
330
1F
100
AcDbEntity
  8
0
  6
Continuous
 62
     7
370
    15
100
AcDbLine
 10
2223.7773183638
 20
1223.3474153863
 30
0.0
 11
2223.7773183638
 21
1299.2741323603
 31
0.0
  0
ARC
  5
121
330
1F
100
AcDbEntity
  8
0
  6
Continuous
 62
     7
370
    15
100
AcDbCircle
 10
2227.0848861818
 20
1223.4503562795
 30
0.0
 40
3.309169336615553
100
AcDbArc
 50
181.7826317691
 51
220.1216831935
  0
LINE
  5
122
330
1F
100
AcDbEntity
  8
0
  6
Continuous
 62
     7
370
    15
100
AcDbLine
 10
2246.756938672
 20
1193.7653271423
 30
0.0
 11
2224.5544385751
 21
1221.3178843318
 31
0.0
  0
LINE
  5
123
330
1F
100
AcDbEntity
  8
0
  6
Continuous
 62
     7
370
    15
100
AcDbLine
 10
2244.255426467
 20
1192.020749315
 30
0.0
 11
2246.756938672
 21
1193.7653271423
 31
0.0
  0
LINE
  5
124
330
1F
100
AcDbEntity
  8
0
  6
Continuous
 62
     7
370
    15
100
AcDbLine
 10
2221.7938862997
 20
1219.8947665348
 30
0.0
 11
2244.255426467
 21
1192.020749315
 31
0.0
  0
ARC
  5
125
330
1F
100
AcDbEntity
  8
0
  6
Continuous
 62
     7
370
    15
100
AcDbCircle
 10
2226.8547815132
 20
1224.1597104303
 30
0.0
 40
6.618338673240066
100
AcDbArc
 50
181.7826317692
 51
220.1216831934
  0
LINE
  5
126
330
1F
100
AcDbEntity
  8
0
  6
Continuous
 62
     7
370
    15
100
AcDbLine
 10
2220.2396458771
 20
1300.5906462602
 30
0.0
 11
2220.2396458771
 21
1223.9538286439
 31
0.0
  0
ARC
  5
127
330
1F
100
AcDbEntity
  8
0
  6
Continuous
 62
     7
370
    15
100
AcDbCircle
 10
2224.0462505257
 20
1300.7328675454
 30
0.0
 40
3.809260537755561
100
AcDbArc
 50
126.2483534283
 51
182.1396734759
  0
LINE
  5
128
330
1F
100
AcDbEntity
  8
0
  6
Continuous
 62
     7
370
    15
100
AcDbLine
 10
2244.255426467
 20
1319.4697764523
 30
0.0
 11
2221.7938862997
 21
1303.8048898823
 31
0.0
  0
LINE
  5
129
330
1F
100
AcDbEntity
  8
0
  6
Continuous
 62
     7
370
    15
100
AcDbLine
 10
2253.5893342456
 20
1328.5799565884
 30
0.0
 11
2243.5733255962
 21
1321.5946992013
 31
0.0
  0
LINE
  5
12A
330
1F
100
AcDbEntity
  8
0
  6
Continuous
 62
     7
370
    15
100
AcDbLine
 10
2233.7068976869
 20
1314.7137608107
 30
0.0
 11
2231.1277940783
 21
1312.9150700184
 31
0.0
  0
LINE
  5
12B
330
1F
100
AcDbEntity
  8
0
  6
Continuous
 62
     7
370
    15
100
AcDbLine
 10
2231.1277940783
 20
1312.9150700184
 30
0.0
 11
2221.7938862997
 21
1303.8048898823
 31
0.0
  0
LINE
  5
12C
330
1F
100
AcDbEntity
  8
0
  6
Continuous
 62
     7
370
    15
100
AcDbLine
 10
2283.8000699684
 20
1291.0894478572
 30
0.0
 11
2281.2985577635
 21
1294.1937405173
 31
0.0
  0
LINE
  5
12D
330
1F
100
AcDbEntity
  8
0
  6
Continuous
 62
     7
370
    15
100
AcDbLine
 10
2283.8000699684
 20
1291.0894478572
 30
0.0
 11
2274.4661621898
 21
1281.9792677211
 31
0.0
  0
LINE
  5
12E
330
1F
100
AcDbEntity
  8
0
  6
Continuous
 62
     7
370
    15
100
AcDbLine
 10
2274.4661621898
 20
1281.9792677211
 30
0.0
 11
2271.9646499848
 21
1285.0835603812
 31
0.0
  0
LINE
  5
12F
330
1F
100
AcDbEntity
  8
0
  6
Continuous
 62
     7
370
    15
100
AcDbLine
 10
2281.2985577635
 20
1294.1937405173
 30
0.0
 11
2271.9646499848
 21
1285.0835603812
 31
0.0
  0
LINE
  5
130
330
1F
100
AcDbEntity
  8
0
  6
Continuous
 62
     7
370
    15
100
AcDbLine
 10
2251.0869822254
 20
1265.6744106403
 30
0.0
 11
2274.4661621898
 21
1281.9792677211
 31
0.0
  0
ARC
  5
131
330
1F
100
AcDbEntity
  8
0
  6
Continuous
 62
     7
370
    15
100
AcDbCircle
 10
2252.2131643384
 20
1264.1383994719
 30
0.0
 40
1.904630268876648
100
AcDbArc
 50
126.2483534283
 51
182.1396734759
  0
LINE
  5
132
330
1F
100
AcDbEntity
  8
0
  6
Continuous
 62
     7
370
    15
100
AcDbLine
 10
2250.3098620141
 20
1244.1323052363
 30
0.0
 11
2250.3098620141
 21
1264.0672888293
 31
0.0
  0
ARC
  5
133
330
1F
100
AcDbEntity
  8
0
  6
Continuous
 62
     7
370
    15
100
AcDbCircle
 10
2253.6174298322
 20
1244.2352461295
 30
0.0
 40
3.309169336619122
100
AcDbArc
 50
181.7826317692
 51
220.1216831934
  0
LINE
  5
134
330
1F
100
AcDbEntity
  8
0
  6
Continuous
 62
     7
370
    15
100
AcDbLine
 10
2274.4661621898
 20
1213.0899967828
 30
0.0
 11
2251.0869822254
 21
1242.1027741817
 31
0.0
  0
LINE
  5
135
330
1F
100
AcDbEntity
  8
0
  6
Continuous
 62
     7
370
    15
100
AcDbLine
 10
2271.9646499848
 20
1211.3454189554
 30
0.0
 11
2274.4661621898
 21
1213.0899967828
 31
0.0
  0
LINE
  5
136
330
1F
100
AcDbEntity
  8
0
  6
Continuous
 62
     7
370
    15
100
AcDbLine
 10
2248.32642995
 20
1240.6796563847
 30
0.0
 11
2271.9646499848
 21
1211.3454189554
 31
0.0
  0
ARC
  5
137
330
1F
100
AcDbEntity
  8
0
  6
Continuous
 62
     7
370
    15
100
AcDbCircle
 10
2253.3873251635
 20
1244.9446002802
 30
0.0
 40
6.618338673245137
100
AcDbArc
 50
181.7826317692
 51
220.1216831934
  0
LINE
  5
138
330
1F
100
AcDbEntity
  8
0
  6
Continuous
 62
     7
370
    15
100
AcDbLine
 10
2246.7721895274
 20
1265.3838027292
 30
0.0
 11
2246.7721895274
 21
1244.7387184939
 31
0.0
  0
ARC
  5
139
330
1F
100
AcDbEntity
  8
0
  6
Continuous
 62
     7
370
    15
100
AcDbCircle
 10
2250.578794176
 20
1265.5260240144
 30
0.0
 40
3.809260537754654
100
AcDbArc
 50
126.2483534283
 51
182.1396734759
  0
LINE
  5
13A
330
1F
100
AcDbEntity
  8
0
  6
Continuous
 62
     7
370
    15
100
AcDbLine
 10
2271.9646499848
 20
1285.0835603812
 30
0.0
 11
2248.32642995
 21
1268.5980463513
 31
0.0
  0
LINE
  5
13B
330
1F
100
AcDbEntity
  8
0
  6
Continuous
 62
     7
370
    15
100
AcDbLine
 10
2281.2985577635
 20
1294.1937405173
 30
0.0
 11
2271.282549114
 21
1287.2084831303
 31
0.0
  0
LINE
  5
13C
330
1F
100
AcDbEntity
  8
0
  6
Continuous
 62
     7
370
    15
100
AcDbLine
 10
2261.4161212047
 20
1280.3275447396
 30
0.0
 11
2257.6603377286
 21
1277.7082264874
 31
0.0
  0
LINE
  5
13D
330
1F
100
AcDbEntity
  8
0
  6
Continuous
 62
     7
370
    15
100
AcDbLine
 10
2257.6603377286
 20
1277.7082264874
 30
0.0
 11
2248.32642995
 21
1268.5980463513
 31
0.0
  0
LWPOLYLINE
  5
13E
330
1F
100
AcDbEntity
  8
0
  6
Continuous
 62
     7
370
    15
100
AcDbPolyline
 90
       11
 70
   128
 43
0.0
 10
2277.655836281
 20
1263.5290517563
 10
2278.676960026
 20
1264.2657039693
 10
2279.8098679367
 20
1265.1277974514
 10
2280.9833752425
 20
1266.0611636985
 10
2282.1237461636
 20
1267.0071558767
 10
2283.159327001
 20
1267.9063338183
 10
2284.025048402
 20
1268.7021988663
 10
2284.6665139072
 20
1269.3447438927
 10
2285.0434178797
 20
1269.7935954304
 10
2285.1320780567
 20
1270.0205504866
 10
2285.1279202845
 20
1270.0268423547
  0
ARC
  5
13F
330
1F
100
AcDbEntity
  8
0
  6
Continuous
 62
     7
370
    15
100
AcDbCircle
 10
2274.9620800189
 20
1266.202472149
 30
0.0
 40
3.795194250083374
100
AcDbArc
 50
282.5090702204
 51
315.217088795
  0
LWPOLYLINE
  5
140
330
1F
100
AcDbEntity
  8
0
  6
Continuous
 62
     7
370
    15
100
AcDbPolyline
 90
        3
 70
   128
 43
0.0
 10
2204.595250428
 20
1348.9608208222
 10
2204.2455320162
 20
1348.6819010012
 10
2204.1566497835
 20
1348.5981700695
  0
LINE
  5
141
330
1F
100
AcDbEntity
  8
0
  6
Continuous
 62
     7
370
    15
100
AcDbLine
 10
2206.5786824921
 20
1210.8337983996
 30
0.0
 11
2197.2447747135
 21
1201.7236182635
 31
0.0
  0
LINE
  5
142
330
1F
100
AcDbEntity
  8
0
  6
Continuous
 62
     7
370
    15
100
AcDbLine
 10
2206.5786824921
 20
1210.8337983996
 30
0.0
 11
2206.5786824921
 21
1342.894588037
 31
0.0
  0
LWPOLYLINE
  5
143
330
1F
100
AcDbEntity
  8
0
  6
Continuous
 62
     7
370
    15
100
AcDbPolyline
 90
        3
 70
   128
 43
0.0
 10
2231.1277940783
 20
1312.9150700184
 10
2230.7780756666
 20
1312.6361501973
 10
2230.6891934339
 20
1312.5524192656
  0
LINE
  5
144
330
1F
100
AcDbEntity
  8
0
  6
Continuous
 62
     7
370
    15
100
AcDbLine
 10
2233.1112261424
 20
1232.4575955224
 30
0.0
 11
2223.7773183638
 21
1223.3474153863
 31
0.0
  0
LINE
  5
145
330
1F
100
AcDbEntity
  8
0
  6
Continuous
 62
     7
370
    15
100
AcDbLine
 10
2233.1112261424
 20
1232.4575955224
 30
0.0
 11
2233.1112261424
 21
1306.8488372332
 31
0.0
  0
LWPOLYLINE
  5
146
330
1F
100
AcDbEntity
  8
0
  6
Continuous
 62
     7
370
    15
100
AcDbPolyline
 90
        3
 70
   128
 43
0.0
 10
2257.6603377286
 20
1277.7082264874
 10
2257.3106193169
 20
1277.4293066663
 10
2257.2217370842
 20
1277.3455757346
  0
LINE
  5
147
330
1F
100
AcDbEntity
  8
0
  6
Continuous
 62
     7
370
    15
100
AcDbLine
 10
2259.6437697927
 20
1253.2424853724
 30
0.0
 11
2250.3098620141
 21
1244.1323052363
 31
0.0
  0
LINE
  5
148
330
1F
100
AcDbEntity
  8
0
  6
Continuous
 62
     7
370
    15
100
AcDbLine
 10
2259.6437697927
 20
1253.2424853724
 30
0.0
 11
2259.6437697927
 21
1271.6419937022
 31
0.0
  0
LINE
  5
149
330
1F
100
AcDbEntity
  8
0
  6
Continuous
 62
     7
370
    15
100
AcDbLine
 10
2283.8000699684
 20
1222.2001769189
 30
0.0
 11
2274.4661621898
 21
1213.0899967828
 31
0.0
  0
LINE
  5
14A
330
1F
100
AcDbEntity
  8
0
  6
Continuous
 62
     7
370
    15
100
AcDbLine
 10
2260.420890004
 20
1251.2129543178
 30
0.0
 11
2251.0869822254
 21
1242.1027741817
 31
0.0
  0
LINE
  5
14B
330
1F
100
AcDbEntity
  8
0
  6
Continuous
 62
     7
370
    15
100
AcDbLine
 10
2265.7737825164
 20
1234.2235712734
 30
0.0
 11
2266.0938389506
 21
1234.4885062434
 31
0.0
  0
LWPOLYLINE
  5
14C
330
1F
100
AcDbEntity
  8
0
  6
Continuous
 62
     7
370
    15
100
AcDbPolyline
 90
       14
 70
   128
 43
0.0
 10
2272.9582626972
 20
1224.645758323
 10
2272.8977767219
 20
1224.6048682048
 10
2271.9840094772
 20
1224.2315805059
 10
2270.9157996505
 20
1224.1935451479
 10
2269.760266794
 20
1224.4931520324
 10
2268.5900172866
 20
1225.1115757567
 10
2267.4785822089
 20
1226.0099584841
 10
2266.4957971143
 20
1227.1318515236
 10
2265.7034140048
 20
1228.4067622095
 10
2265.1512212254
 20
1229.7545832148
 10
2264.873915079
 20
1231.0906259886
 10
2264.8889197309
 20
1232.3309420498
 10
2265.1952923836
 20
1233.3975977789
 10
2265.7737825164
 20
1234.2235712734
  0
LINE
  5
14D
330
1F
100
AcDbEntity
  8
0
  6
Continuous
 62
     7
370
    15
100
AcDbLine
 10
2283.8000699684
 20
1222.2001769189
 30
0.0
 11
2278.6376247414
 21
1228.6065981207
 31
0.0
  0
LINE
  5
14E
330
1F
100
AcDbEntity
  8
0
  6
Continuous
 62
     7
370
    15
100
AcDbLine
 10
2271.0900369859
 20
1237.9729011212
 30
0.0
 11
2260.420890004
 21
1251.2129543178
 31
0.0
  0
LWPOLYLINE
  5
14F
330
1F
100
AcDbEntity
  8
0
  6
Continuous
 62
     7
370
    15
100
AcDbPolyline
 90
       26
 70
   128
 43
0.0
 10
2277.655836281
 20
1234.4567322425
 10
2278.676960026
 20
1233.3845868738
 10
2279.8098679367
 20
1232.5515361787
 10
2280.9833752425
 20
1232.0099237958
 10
2282.1237461636
 20
1231.7937812233
 10
2283.159327001
 20
1231.9166894938
 10
2284.025048402
 20
1232.3709258287
 10
2284.6665139072
 20
1233.1279488884
 10
2285.0434178797
 20
1234.1401921301
 10
2285.1320780567
 20
1235.3440525881
 10
2284.9269235933
 20
1236.6638872822
 10
2284.440845099
 20
1238.0167661448
 10
2283.7043846731
 20
1239.3176828212
 10
2282.7638168327
 20
1240.4848959322
 10
2281.6782409145
 20
1241.4450651855
 10
2280.5158676458
 20
1242.1378596155
 10
2279.349733214
 20
1242.5197484003
 10
2278.2531101343
 20
1242.5667360631
 10
2277.2949032677
 20
1242.2758701962
 10
2276.5353202759
 20
1241.6654269717
 10
2276.0220885516
 20
1240.7737627825
 10
2275.7874563317
 20
1239.6569041689
 10
2275.8461664214
 20
1238.3850274652
 10
2276.19452985
 20
1237.0380493622
 10
2276.810657662
 20
1235.700605448
 10
2277.655836281
 20
1234.4567322425
  0
ARC
  5
150
330
1F
100
AcDbEntity
  8
0
  6
Continuous
 62
     7
370
    15
100
AcDbCircle
 10
2262.9513376108
 20
1253.3454262656
 30
0.0
 40
3.309169336619557
100
AcDbArc
 50
181.7826317692
 51
220.1216831934
  0
LINE
  5
151
330
1F
100
AcDbEntity
  8
0
  6
Continuous
 62
     7
370
    15
100
AcDbLine
 10
2238.0645589986
 20
1214.8989016329
 30
0.0
 11
2238.3846154328
 21
1215.163836603
 31
0.0
  0
LWPOLYLINE
  5
152
330
1F
100
AcDbEntity
  8
0
  6
Continuous
 62
     7
370
    15
100
AcDbPolyline
 90
       14
 70
   128
 43
0.0
 10
2245.2490391794
 20
1205.3210886825
 10
2245.1885532041
 20
1205.2801985643
 10
2244.2747859594
 20
1204.9069108654
 10
2243.2065761327
 20
1204.8688755075
 10
2242.0510432762
 20
1205.1684823919
 10
2240.8807937688
 20
1205.7869061163
 10
2239.7693586911
 20
1206.6852888436
 10
2238.7865735965
 20
1207.8071818831
 10
2237.994190487
 20
1209.0820925691
 10
2237.4419977075
 20
1210.4299135743
 10
2237.1646915612
 20
1211.7659563481
 10
2237.1796962131
 20
1213.0062724094
 10
2237.4860688658
 20
1214.0729281384
 10
2238.0645589986
 20
1214.8989016329
  0
LINE
  5
153
330
1F
100
AcDbEntity
  8
0
  6
Continuous
 62
     7
370
    15
100
AcDbLine
 10
2256.0908464506
 20
1202.8755072784
 30
0.0
 11
2246.756938672
 21
1193.7653271423
 31
0.0
  0
LINE
  5
154
330
1F
100
AcDbEntity
  8
0
  6
Continuous
 62
     7
370
    15
100
AcDbLine
 10
2233.8883463537
 20
1230.4280644678
 30
0.0
 11
2224.5544385751
 21
1221.3178843318
 31
0.0
  0
LINE
  5
155
330
1F
100
AcDbEntity
  8
0
  6
Continuous
 62
     7
370
    15
100
AcDbLine
 10
2256.0908464506
 20
1202.8755072784
 30
0.0
 11
2250.9284012236
 21
1209.2819284802
 31
0.0
  0
LINE
  5
156
330
1F
100
AcDbEntity
  8
0
  6
Continuous
 62
     7
370
    15
100
AcDbLine
 10
2243.3808134681
 20
1218.6482314807
 30
0.0
 11
2233.8883463537
 21
1230.4280644678
 31
0.0
  0
ARC
  5
157
330
1F
100
AcDbEntity
  8
0
  6
Continuous
 62
     7
370
    15
100
AcDbCircle
 10
2236.4187939605
 20
1232.5605364156
 30
0.0
 40
3.309169336621397
100
AcDbArc
 50
181.7826317692
 51
220.1216831934
  0
LINE
  5
158
330
1F
100
AcDbEntity
  8
0
  6
Continuous
 62
     7
370
    15
100
AcDbLine
 10
2209.9225466927
 20
1195.2724010751
 30
0.0
 11
2210.2426031268
 21
1195.5373360451
 31
0.0
  0
LWPOLYLINE
  5
159
330
1F
100
AcDbEntity
  8
0
  6
Continuous
 62
     7
370
    15
100
AcDbPolyline
 90
       14
 70
   128
 43
0.0
 10
2217.1070268735
 20
1185.6945881246
 10
2217.0465408982
 20
1185.6536980065
 10
2216.1327736535
 20
1185.2804103076
 10
2215.0645638268
 20
1185.2423749496
 10
2213.9090309702
 20
1185.541981834
 10
2212.7387814629
 20
1186.1604055584
 10
2211.6273463852
 20
1187.0587882858
 10
2210.6445612906
 20
1188.1806813253
 10
2209.8521781811
 20
1189.4555920112
 10
2209.2999854016
 20
1190.8034130165
 10
2209.0226792553
 20
1192.1394557903
 10
2209.0376839072
 20
1193.3797718515
 10
2209.3440565599
 20
1194.4464275806
 10
2209.9225466927
 20
1195.2724010751
  0
LINE
  5
15A
330
1F
100
AcDbEntity
  8
0
  6
Continuous
 62
     7
370
    15
100
AcDbLine
 10
2227.9488341447
 20
1183.2490067206
 30
0.0
 11
2218.6149263661
 21
1174.1388265845
 31
0.0
  0
LINE
  5
15B
330
1F
100
AcDbEntity
  8
0
  6
Continuous
 62
     7
370
    15
100
AcDbLine
 10
2207.3558027034
 20
1208.804267345
 30
0.0
 11
2198.0218949248
 21
1199.6940872089
 31
0.0
  0
LINE
  5
15C
330
1F
100
AcDbEntity
  8
0
  6
Continuous
 62
     7
370
    15
100
AcDbLine
 10
2227.9488341447
 20
1183.2490067206
 30
0.0
 11
2222.7863889177
 21
1189.6554279224
 31
0.0
  0
LINE
  5
15D
330
1F
100
AcDbEntity
  8
0
  6
Continuous
 62
     7
370
    15
100
AcDbLine
 10
2215.2388011622
 20
1199.0217309229
 30
0.0
 11
2207.3558027034
 21
1208.804267345
 31
0.0
  0
ARC
  5
15E
330
1F
100
AcDbEntity
  8
0
  6
Continuous
 62
     7
370
    15
100
AcDbCircle
 10
2209.8862503101
 20
1210.9367392928
 30
0.0
 40
3.30916933661828
100
AcDbArc
 50
181.7826317692
 51
220.1216831934
  0
LWPOLYLINE
  5
15F
330
1F
100
AcDbEntity
  8
0
  6
Continuous
 62
     7
370
    15
100
AcDbPolyline
 90
       10
 70
   128
 43
0.0
 10
2198.2728011507
 20
841.983849624
 10
2199.6804487711
 20
841.7110541391
 10
2201.1755938405
 20
841.6271272346
 10
2202.6642908955
 20
841.7373423466
 10
2204.0529996251
 20
842.0347742543
 10
2205.2544623526
 20
842.5007342171
 10
2206.193186756
 20
843.1059442567
 10
2206.8101893287
 20
843.8123768007
 10
2207.0667015299
 20
844.5756440942
 10
2207.0729734843
 20
844.7169036649
  0
LWPOLYLINE
  5
160
330
1F
100
AcDbEntity
  8
0
  6
Continuous
 62
     7
370
    15
100
AcDbPolyline
 90
        6
 70
   128
 43
0.0
 10
2195.0729734843
 20
844.7169036649
 10
2195.0921326097
 20
844.470145901
 10
2195.399180508
 20
843.7118436775
 10
2196.0627336858
 20
843.0166930693
 10
2197.0410986564
 20
842.4283729458
 10
2198.2728011507
 20
841.983849624
  0
LWPOLYLINE
  5
161
330
1F
100
AcDbEntity
  8
0
  6
Continuous
 62
     8
370
    15
100
AcDbPolyline
 90
       10
 70
   128
 43
0.0
 10
2198.2728011507
 20
1369.1417395558
 10
2199.6804487711
 20
1368.8689440709
 10
2201.1755938405
 20
1368.7850171664
 10
2202.6642908955
 20
1368.8952322784
 10
2204.0529996251
 20
1369.1926641861
 10
2205.2544623526
 20
1369.6586241489
 10
2206.193186756
 20
1370.2638341886
 10
2206.8101893287
 20
1370.9702667325
 10
2207.0667015299
 20
1371.733534026
 10
2207.0729734843
 20
1371.8747935967
  0
LWPOLYLINE
  5
162
330
1F
100
AcDbEntity
  8
0
  6
Continuous
 62
     8
370
    15
100
AcDbPolyline
 90
        6
 70
   128
 43
0.0
 10
2195.0729734843
 20
1371.8747935967
 10
2195.0921326097
 20
1371.6280358328
 10
2195.399180508
 20
1370.8697336093
 10
2196.0627336858
 20
1370.1745830011
 10
2197.0410986564
 20
1369.5862628776
 10
2198.2728011507
 20
1369.1417395558
  0
LWPOLYLINE
  5
163
330
1F
100
AcDbEntity
  8
0
  6
Continuous
 62
     8
370
    15
100
AcDbPolyline
 90
       11
 70
   128
 43
0.0
 10
2203.4536025594
 20
1355.6115325253
 10
2204.4747263044
 20
1356.3481847383
 10
2205.6076342152
 20
1357.2102782204
 10
2206.781141521
 20
1358.1436444675
 10
2207.9215124421
 20
1359.0896366458
 10
2208.9570932794
 20
1359.9888145874
 10
2209.8228146805
 20
1360.7846796353
 10
2210.4642801857
 20
1361.4272246618
 10
2210.8411841582
 20
1361.8760761995
 10
2210.9298443352
 20
1362.1030312556
 10
2210.9259055787
 20
1362.1090488585
  0
ARC
  5
164
330
1F
100
AcDbEntity
  8
0
  6
Continuous
 62
     8
370
    15
100
AcDbCircle
 10
2200.7594181771
 20
1358.2856256618
 30
0.0
 40
3.79597202149973
100
AcDbArc
 50
282.5133909525
 51
315.2144334406
  0
LINE
  5
165
330
1F
100
AcDbEntity
  8
0
  6
Continuous
 62
     8
370
    15
100
AcDbLine
 10
2201.0677081138
 20
1339.0511833603
 30
0.0
 11
2197.2447747135
 21
1335.3198831641
 31
0.0
  0
LINE
  5
166
330
1F
100
AcDbEntity
  8
0
  6
Continuous
 62
     8
370
    15
100
AcDbLine
 10
2227.6002517641
 20
1303.0054325564
 30
0.0
 11
2223.7773183638
 21
1299.2741323603
 31
0.0
  0
LINE
  5
167
330
1F
100
AcDbEntity
  8
0
  6
Continuous
 62
     8
370
    15
100
AcDbLine
 10
2254.1327954144
 20
1267.7985890254
 30
0.0
 11
2250.3098620141
 21
1264.0672888293
 31
0.0
  0
LWPOLYLINE
  5
168
330
1F
100
AcDbEntity
  8
0
  6
Continuous
 62
     8
370
    15
100
AcDbPolyline
 90
        7
 70
   128
 43
0.0
 10
2203.4536025594
 20
1182.7074058014
 10
2204.4747263044
 20
1181.6352604327
 10
2205.6076342152
 20
1180.8022097375
 10
2206.781141521
 20
1180.2605973547
 10
2207.9215124421
 20
1180.0444547822
 10
2208.9570932794
 20
1180.1673630527
 10
2209.6082198206
 20
1180.4669765272
  0
LWPOLYLINE
  5
169
330
1F
100
AcDbEntity
  8
0
  6
Continuous
 62
     8
370
    15
100
AcDbPolyline
 90
        7
 70
   128
 43
0.0
 10
2202.167953466
 20
1189.7000972723
 10
2201.8198548301
 20
1189.0244363414
 10
2201.5852226102
 20
1187.9075777278
 10
2201.6439326999
 20
1186.6357010241
 10
2201.9922961285
 20
1185.2887229211
 10
2202.6084239405
 20
1183.9512790069
 10
2203.4536025594
 20
1182.7074058014
  0
LWPOLYLINE
  5
16A
330
1F
100
AcDbEntity
  8
0
  6
Continuous
 62
     8
370
    15
100
AcDbPolyline
 90
       10
 70
   128
 43
0.0
 10
2198.2728011507
 20
1171.9932603943
 10
2199.6804487711
 20
1171.7204649094
 10
2201.1755938405
 20
1171.6365380049
 10
2202.6642908955
 20
1171.7467531169
 10
2204.0529996251
 20
1172.0441850247
 10
2205.2544623526
 20
1172.5101449874
 10
2206.193186756
 20
1173.1153550271
 10
2206.8101893287
 20
1173.821787571
 10
2207.0667015299
 20
1174.5850548645
 10
2207.072972796
 20
1174.7248342312
  0
LWPOLYLINE
  5
16B
330
1F
100
AcDbEntity
  8
0
  6
Continuous
 62
     8
370
    15
100
AcDbPolyline
 90
        6
 70
   128
 43
0.0
 10
2195.0729735324
 20
1174.7259230858
 10
2195.0921326097
 20
1174.4795566713
 10
2195.399180508
 20
1173.7212544478
 10
2196.0627336858
 20
1173.0261038396
 10
2197.0410986564
 20
1172.4377837161
 10
2198.2728011507
 20
1171.9932603943
  0
ENDSEC
  0
SECTION
  2
OBJECTS
  0
DICTIONARY
  5
C
330
0
100
AcDbDictionary
281
     1
  3
ACAD_GROUP
350
D
  3
ACAD_LAYOUT
350
1A
  3
ACAD_MLINESTYLE
350
17
  3
ACAD_PLOTSETTINGS
350
19
  3
ACAD_PLOTSTYLENAME
350
E
  3
ACAD_SCALELIST
350
47
  0
DICTIONARY
  5
D
102
{ACAD_REACTORS
330
C
102
}
330
C
100
AcDbDictionary
281
     1
  0
DICTIONARY
  5
1A
102
{ACAD_REACTORS
330
C
102
}
330
C
100
AcDbDictionary
281
     1
  3
Layout1
350
1E
  3
Layout2
350
26
  3
Model
350
22
  0
DICTIONARY
  5
17
102
{ACAD_REACTORS
330
C
102
}
330
C
100
AcDbDictionary
281
     1
  3
Standard
350
18
  0
DICTIONARY
  5
19
102
{ACAD_REACTORS
330
C
102
}
330
C
100
AcDbDictionary
281
     1
  0
ACDBDICTIONARYWDFLT
  5
E
102
{ACAD_REACTORS
330
C
102
}
330
C
100
AcDbDictionary
281
     1
  3
Normal
350
F
100
AcDbDictionaryWithDefault
340
F
  0
DICTIONARY
  5
47
102
{ACAD_REACTORS
330
C
102
}
330
C
100
AcDbDictionary
281
     1
  3
A0
350
48
  3
A1
350
49
  3
A2
350
4A
  3
A3
350
4B
  3
A4
350
4C
  3
A5
350
4D
  3
A6
350
4E
  3
A7
350
4F
  3
A8
350
50
  3
A9
350
51
  3
B0
350
52
  3
B1
350
53
  3
B2
350
54
  3
B3
350
55
  3
B4
350
56
  3
B5
350
57
  3
B6
350
58
  3
B7
350
59
  3
B8
350
5A
  3
B9
350
5B
  3
C0
350
5C
  3
C1
350
5D
  3
C2
350
5E
  3
C3
350
5F
  3
C4
350
60
  3
C5
350
61
  3
C6
350
62
  3
C7
350
63
  3
C8
350
64
  3
C9
350
65
  3
D0
350
66
  3
D1
350
67
  3
D2
350
68
  0
LAYOUT
  5
1E
102
{ACAD_REACTORS
330
1A
102
}
330
1A
100
AcDbPlotSettings
  1

  2
none_device
  4

  6

 40
0.0
 41
0.0
 42
0.0
 43
0.0
 44
0.0
 45
0.0
 46
0.0
 47
0.0
 48
0.0
 49
0.0
140
0.0
141
0.0
142
1.0
143
1.0
 70
   688
 72
     1
 73
     0
 74
     5
  7

 75
    16
147
1.0
148
0.0
149
0.0
100
AcDbLayout
  1
Layout1
 70
     1
 71
     1
 10
0.0
 20
0.0
 11
420.0
 21
297.0
 12
0.0
 22
0.0
 32
0.0
 14
1.0000000000E+20
 24
1.0000000000E+20
 34
1.0000000000E+20
 15
-1.0000000000E+20
 25
-1.0000000000E+20
 35
-1.0000000000E+20
146
0.0
 13
0.0
 23
0.0
 33
0.0
 16
1.0
 26
0.0
 36
0.0
 17
0.0
 27
1.0
 37
0.0
 76
     0
330
1B
  0
LAYOUT
  5
26
102
{ACAD_REACTORS
330
1A
102
}
330
1A
100
AcDbPlotSettings
  1

  2
none_device
  4

  6

 40
0.0
 41
0.0
 42
0.0
 43
0.0
 44
0.0
 45
0.0
 46
0.0
 47
0.0
 48
0.0
 49
0.0
140
0.0
141
0.0
142
1.0
143
1.0
 70
   688
 72
     1
 73
     0
 74
     5
  7

 75
    16
147
1.0
148
0.0
149
0.0
100
AcDbLayout
  1
Layout2
 70
     1
 71
     2
 10
0.0
 20
0.0
 11
0.0
 21
0.0
 12
0.0
 22
0.0
 32
0.0
 14
0.0
 24
0.0
 34
0.0
 15
0.0
 25
0.0
 35
0.0
146
0.0
 13
0.0
 23
0.0
 33
0.0
 16
1.0
 26
0.0
 36
0.0
 17
0.0
 27
1.0
 37
0.0
 76
     0
330
23
  0
LAYOUT
  5
22
102
{ACAD_REACTORS
330
1A
102
}
330
1A
100
AcDbPlotSettings
  1

  2
none_device
  4
Letter_(8.50_x_11.00_Inches)
  6

 40
6.35
 41
6.35
 42
6.35000508
 43
6.35000508
 44
215.9
 45
279.4
 46
0.0
 47
0.0
 48
0.0
 49
0.0
140
0.0
141
0.0
142
1.0
143
1.0
 70
  1712
 72
     1
 73
     0
 74
     0
  7

 75
     0
147
1.0
148
0.0
149
0.0
100
AcDbLayout
  1
Model
 70
     1
 71
     0
 10
0.0
 20
0.0
 11
2970.0
 21
2100.0
 12
0.0
 22
0.0
 32
0.0
 14
0.0
 24
0.0
 34
0.0
 15
2970.0
 25
2100.0
 35
0.0
146
0.0
 13
0.0
 23
0.0
 33
0.0
 16
1.0
 26
0.0
 36
0.0
 17
0.0
 27
1.0
 37
0.0
 76
     0
330
1F
331
29
  0
MLINESTYLE
  5
18
102
{ACAD_REACTORS
330
17
102
}
330
17
100
AcDbMlineStyle
  2
Standard
 70
     0
  3

 62
   256
 51
90.0
 52
90.0
 71
     2
 49
0.5
 62
   256
  6
BYLAYER
 49
-0.5
 62
   256
  6
BYLAYER
  0
ACDBPLACEHOLDER
  5
F
102
{ACAD_REACTORS
330
E
102
}
330
E
  0
SCALE
  5
48
102
{ACAD_REACTORS
330
47
102
}
330
47
100
AcDbScale
 70
     0
300
1:1
140
1.0
141
1.0
290
     1
  0
SCALE
  5
49
102
{ACAD_REACTORS
330
47
102
}
330
47
100
AcDbScale
 70
     0
300
1:2
140
1.0
141
2.0
290
     0
  0
SCALE
  5
4A
102
{ACAD_REACTORS
330
47
102
}
330
47
100
AcDbScale
 70
     0
300
1:4
140
1.0
141
4.0
290
     0
  0
SCALE
  5
4B
102
{ACAD_REACTORS
330
47
102
}
330
47
100
AcDbScale
 70
     0
300
1:5
140
1.0
141
5.0
290
     0
  0
SCALE
  5
4C
102
{ACAD_REACTORS
330
47
102
}
330
47
100
AcDbScale
 70
     0
300
1:8
140
1.0
141
8.0
290
     0
  0
SCALE
  5
4D
102
{ACAD_REACTORS
330
47
102
}
330
47
100
AcDbScale
 70
     0
300
1:10
140
1.0
141
10.0
290
     0
  0
SCALE
  5
4E
102
{ACAD_REACTORS
330
47
102
}
330
47
100
AcDbScale
 70
     0
300
1:16
140
1.0
141
16.0
290
     0
  0
SCALE
  5
4F
102
{ACAD_REACTORS
330
47
102
}
330
47
100
AcDbScale
 70
     0
300
1:20
140
1.0
141
20.0
290
     0
  0
SCALE
  5
50
102
{ACAD_REACTORS
330
47
102
}
330
47
100
AcDbScale
 70
     0
300
1:30
140
1.0
141
30.0
290
     0
  0
SCALE
  5
51
102
{ACAD_REACTORS
330
47
102
}
330
47
100
AcDbScale
 70
     0
300
1:40
140
1.0
141
40.0
290
     0
  0
SCALE
  5
52
102
{ACAD_REACTORS
330
47
102
}
330
47
100
AcDbScale
 70
     0
300
1:50
140
1.0
141
50.0
290
     0
  0
SCALE
  5
53
102
{ACAD_REACTORS
330
47
102
}
330
47
100
AcDbScale
 70
     0
300
1:100
140
1.0
141
100.0
290
     0
  0
SCALE
  5
54
102
{ACAD_REACTORS
330
47
102
}
330
47
100
AcDbScale
 70
     0
300
2:1
140
2.0
141
1.0
290
     0
  0
SCALE
  5
55
102
{ACAD_REACTORS
330
47
102
}
330
47
100
AcDbScale
 70
     0
300
4:1
140
4.0
141
1.0
290
     0
  0
SCALE
  5
56
102
{ACAD_REACTORS
330
47
102
}
330
47
100
AcDbScale
 70
     0
300
8:1
140
8.0
141
1.0
290
     0
  0
SCALE
  5
57
102
{ACAD_REACTORS
330
47
102
}
330
47
100
AcDbScale
 70
     0
300
10:1
140
10.0
141
1.0
290
     0
  0
SCALE
  5
58
102
{ACAD_REACTORS
330
47
102
}
330
47
100
AcDbScale
 70
     0
300
100:1
140
100.0
141
1.0
290
     0
  0
SCALE
  5
59
102
{ACAD_REACTORS
330
47
102
}
330
47
100
AcDbScale
 70
     0
300
1/128" = 1'-0"
140
0.0078125
141
12.0
290
     0
  0
SCALE
  5
5A
102
{ACAD_REACTORS
330
47
102
}
330
47
100
AcDbScale
 70
     0
300
1/64" = 1'-0"
140
0.015625
141
12.0
290
     0
  0
SCALE
  5
5B
102
{ACAD_REACTORS
330
47
102
}
330
47
100
AcDbScale
 70
     0
300
1/32" = 1'-0"
140
0.03125
141
12.0
290
     0
  0
SCALE
  5
5C
102
{ACAD_REACTORS
330
47
102
}
330
47
100
AcDbScale
 70
     0
300
1/16" = 1'-0"
140
0.0625
141
12.0
290
     0
  0
SCALE
  5
5D
102
{ACAD_REACTORS
330
47
102
}
330
47
100
AcDbScale
 70
     0
300
3/32" = 1'-0"
140
0.09375
141
12.0
290
     0
  0
SCALE
  5
5E
102
{ACAD_REACTORS
330
47
102
}
330
47
100
AcDbScale
 70
     0
300
1/8" = 1'-0"
140
0.125
141
12.0
290
     0
  0
SCALE
  5
5F
102
{ACAD_REACTORS
330
47
102
}
330
47
100
AcDbScale
 70
     0
300
3/16" = 1'-0"
140
0.1875
141
12.0
290
     0
  0
SCALE
  5
60
102
{ACAD_REACTORS
330
47
102
}
330
47
100
AcDbScale
 70
     0
300
1/4" = 1'-0"
140
0.25
141
12.0
290
     0
  0
SCALE
  5
61
102
{ACAD_REACTORS
330
47
102
}
330
47
100
AcDbScale
 70
     0
300
3/8" = 1'-0"
140
0.375
141
12.0
290
     0
  0
SCALE
  5
62
102
{ACAD_REACTORS
330
47
102
}
330
47
100
AcDbScale
 70
     0
300
1/2" = 1'-0"
140
0.5
141
12.0
290
     0
  0
SCALE
  5
63
102
{ACAD_REACTORS
330
47
102
}
330
47
100
AcDbScale
 70
     0
300
3/4" = 1'-0"
140
0.75
141
12.0
290
     0
  0
SCALE
  5
64
102
{ACAD_REACTORS
330
47
102
}
330
47
100
AcDbScale
 70
     0
300
1" = 1'-0"
140
1.0
141
12.0
290
     0
  0
SCALE
  5
65
102
{ACAD_REACTORS
330
47
102
}
330
47
100
AcDbScale
 70
     0
300
1-1/2" = 1'-0"
140
1.5
141
12.0
290
     0
  0
SCALE
  5
66
102
{ACAD_REACTORS
330
47
102
}
330
47
100
AcDbScale
 70
     0
300
3" = 1'-0"
140
3.0
141
12.0
290
     0
  0
SCALE
  5
67
102
{ACAD_REACTORS
330
47
102
}
330
47
100
AcDbScale
 70
     0
300
6" = 1'-0"
140
6.0
141
12.0
290
     0
  0
SCALE
  5
68
102
{ACAD_REACTORS
330
47
102
}
330
47
100
AcDbScale
 70
     0
300
1'-0" = 1'-0"
140
12.0
141
12.0
290
     0
  0
ENDSEC
  0
EOF
