ISO-10303-21;
HEADER;
FILE_DESCRIPTION (( 'STEP AP203' ),
    '1' );
FILE_NAME ('3561.STEP',
    '2021-09-29T13:06:08',
    ( '' ),
    ( '' ),
    'SwSTEP 2.0',
    'SolidWorks 2018',
    '' );
FILE_SCHEMA (( 'CONFIG_CONTROL_DESIGN' ));
ENDSEC;

DATA;
#1 = CARTESIAN_POINT ( 'NONE',  ( -6.938893903907228378E-15, 25.00000000000000000, 0.000000000000000000 ) ) ;
#2 = CC_DESIGN_DATE_AND_TIME_ASSIGNMENT ( #234, #257, ( #219 ) ) ;
#3 =( BOUNDED_CURVE ( )  B_SPLINE_CURVE ( 3, ( #259, #98, #140, #144 ),
 .UNSPECIFIED., .F., .F. ) 
 B_SPLINE_CURVE_WITH_KNOTS ( ( 4, 4 ),
 ( 1.570796326794896114, 4.712388980384688786 ),
 .UNSPECIFIED. ) 
 CURVE ( )  GEOMETRIC_REPRESENTATION_ITEM ( )  RATIONAL_B_SPLINE_CURVE ( ( 1.000000000000000000, 0.3333333333333335369, 0.3333333333333335369, 1.000000000000000000 ) ) 
 REPRESENTATION_ITEM ( '' )  );
#4 = PERSON_AND_ORGANIZATION ( #61, #182 ) ;
#5 = DIRECTION ( 'NONE',  ( -0.5000000000000041078, -4.592425496802587777E-16, 0.8660254037844363761 ) ) ;
#6 = CARTESIAN_POINT ( 'NONE',  ( 0.000000000000000000, 0.000000000000000000, 0.000000000000000000 ) ) ;
#7 = APPROVAL_STATUS ( 'not_yet_approved' ) ;
#8 = CARTESIAN_POINT ( 'NONE',  ( 5.204170427930421283E-15, -25.00000000000000000, 0.000000000000000000 ) ) ;
#9 = CALENDAR_DATE ( 2021, 29, 9 ) ;
#10 = ORIENTED_EDGE ( 'NONE', *, *, #169, .F. ) ;
#11 = AXIS2_PLACEMENT_3D ( 'NONE', #33, #5, #154 ) ;
#12 = CC_DESIGN_APPROVAL ( #192, ( #172 ) ) ;
#13 = LOCAL_TIME ( 15, 6, 8.000000000000000000, #173 ) ;
#14 = EDGE_LOOP ( 'NONE', ( #17, #249 ) ) ;
#15 =( BOUNDED_CURVE ( )  B_SPLINE_CURVE ( 3, ( #228, #74, #214, #216 ),
 .UNSPECIFIED., .F., .T. ) 
 B_SPLINE_CURVE_WITH_KNOTS ( ( 4, 4 ),
 ( 4.712388980384689674, 7.853981633974482790 ),
 .UNSPECIFIED. ) 
 CURVE ( )  GEOMETRIC_REPRESENTATION_ITEM ( )  RATIONAL_B_SPLINE_CURVE ( ( 1.000000000000000000, 0.3333333333333333703, 0.3333333333333333703, 1.000000000000000000 ) ) 
 REPRESENTATION_ITEM ( '' )  );
#16 = PRODUCT_RELATED_PRODUCT_CATEGORY ( 'detail', '', ( #175 ) ) ;
#17 = ORIENTED_EDGE ( 'NONE', *, *, #169, .T. ) ;
#18 = AXIS2_PLACEMENT_3D ( 'NONE', #183, #82, #84 ) ;
#19 = COORDINATED_UNIVERSAL_TIME_OFFSET ( 1, 0, .AHEAD. ) ;
#20 = CARTESIAN_POINT ( 'NONE',  ( -57.73502691896261041, -25.00000000000002132, -5.936901814108083452E-13 ) ) ;
#21 = APPROVAL_ROLE ( '' ) ;
#22 = CARTESIAN_POINT ( 'NONE',  ( -6.938893903907228378E-15, 25.00000000000000000, 0.000000000000000000 ) ) ;
#23 = ORIENTED_EDGE ( 'NONE', *, *, #26, .T. ) ;
#24 = CARTESIAN_POINT ( 'NONE',  ( 0.000000000000000000, 0.000000000000000000, 0.000000000000000000 ) ) ;
#25 = DIRECTION ( 'NONE',  ( -1.000000000000000000, -6.123233995736766282E-16, 0.000000000000000000 ) ) ;
#26 = EDGE_CURVE ( 'NONE', #96, #131, #77, .T. ) ;
#27 = CALENDAR_DATE ( 2021, 29, 9 ) ;
#28 = APPLICATION_PROTOCOL_DEFINITION ( 'international standard', 'config_control_design', 1994, #124 ) ;
#29 = COORDINATED_UNIVERSAL_TIME_OFFSET ( 1, 0, .AHEAD. ) ;
#30 = DIRECTION ( 'NONE',  ( 1.000000000000000000, 0.000000000000000000, 0.000000000000000000 ) ) ;
#31 = PERSON_AND_ORGANIZATION_ROLE ( 'design_supplier' ) ;
#32 = APPROVAL_STATUS ( 'not_yet_approved' ) ;
#33 = CARTESIAN_POINT ( 'NONE',  ( -0.000000000000000000, 0.000000000000000000, 0.000000000000000000 ) ) ;
#34 = PERSON_AND_ORGANIZATION_ROLE ( 'creator' ) ;
#35 = CC_DESIGN_PERSON_AND_ORGANIZATION_ASSIGNMENT ( #111, #186, ( #172 ) ) ;
#36 = EDGE_LOOP ( 'NONE', ( #239, #71 ) ) ;
#37 = CALENDAR_DATE ( 2021, 29, 9 ) ;
#38 = CYLINDRICAL_SURFACE ( 'NONE', #46, 25.00000000000000000 ) ;
#39 = CC_DESIGN_PERSON_AND_ORGANIZATION_ASSIGNMENT ( #246, #241, ( #175 ) ) ;
#40 = DATE_AND_TIME ( #177, #141 ) ;
#41 = ORIENTED_EDGE ( 'NONE', *, *, #209, .T. ) ;
#42 = PERSON_AND_ORGANIZATION ( #61, #182 ) ;
#43 = LOCAL_TIME ( 15, 6, 8.000000000000000000, #53 ) ;
#44 = ORIENTED_EDGE ( 'NONE', *, *, #51, .T. ) ;
#45 = DATE_TIME_ROLE ( 'creation_date' ) ;
#46 = AXIS2_PLACEMENT_3D ( 'NONE', #113, #212, #72 ) ;
#47 = CARTESIAN_POINT ( 'NONE',  ( -6.938893903907228378E-15, 25.00000000000000000, 0.000000000000000000 ) ) ;
#48 = COORDINATED_UNIVERSAL_TIME_OFFSET ( 1, 0, .AHEAD. ) ;
#49 = ORIENTED_EDGE ( 'NONE', *, *, #93, .T. ) ;
#50 = CC_DESIGN_APPROVAL ( #89, ( #211 ) ) ;
#51 = EDGE_CURVE ( 'NONE', #96, #131, #109, .T. ) ;
#52 = LOCAL_TIME ( 15, 6, 8.000000000000000000, #63 ) ;
#53 = COORDINATED_UNIVERSAL_TIME_OFFSET ( 1, 0, .AHEAD. ) ;
#54 = CARTESIAN_POINT ( 'NONE',  ( 5.204170427930421283E-15, -25.00000000000000000, 0.000000000000000000 ) ) ;
#55 = DIRECTION ( 'NONE',  ( 1.000000000000000000, 0.000000000000000000, 0.000000000000000000 ) ) ;
#56 = CARTESIAN_POINT ( 'NONE',  ( 0.000000000000000000, 0.000000000000000000, 0.000000000000000000 ) ) ;
#57 = PRODUCT_DEFINITION ( 'UNKNOWN', '', #160, #116 ) ;
#58 = APPROVAL_ROLE ( '' ) ;
#59 = DATE_AND_TIME ( #9, #65 ) ;
#60 = EDGE_LOOP ( 'NONE', ( #44, #232 ) ) ;
#61 = PERSON ( 'UNSPECIFIED', 'UNSPECIFIED', 'UNSPECIFIED', ('UNSPECIFIED'), ('UNSPECIFIED'), ('UNSPECIFIED') ) ;
#62 = APPLICATION_PROTOCOL_DEFINITION ( 'international standard', 'config_control_design', 1994, #97 ) ;
#63 = COORDINATED_UNIVERSAL_TIME_OFFSET ( 1, 0, .AHEAD. ) ;
#64 = COORDINATED_UNIVERSAL_TIME_OFFSET ( 1, 0, .AHEAD. ) ;
#65 = LOCAL_TIME ( 15, 6, 8.000000000000000000, #48 ) ;
#66 = EDGE_LOOP ( 'NONE', ( #23, #213 ) ) ;
#67 = CC_DESIGN_DATE_AND_TIME_ASSIGNMENT ( #118, #143, ( #172 ) ) ;
#68 = APPROVAL_PERSON_ORGANIZATION ( #148, #90, #181 ) ;
#69 = DATE_AND_TIME ( #178, #73 ) ;
#70 = PERSON_AND_ORGANIZATION ( #61, #182 ) ;
#71 = ORIENTED_EDGE ( 'NONE', *, *, #209, .F. ) ;
#72 = DIRECTION ( 'NONE',  ( -0.8660254037844432595, -2.651438096812281708E-16, 0.4999999999999919509 ) ) ;
#73 = LOCAL_TIME ( 15, 6, 8.000000000000000000, #100 ) ;
#74 = CARTESIAN_POINT ( 'NONE',  ( 28.86751345948136205, 25.00000000000001066, -50.00000000000000000 ) ) ;
#75 =( LENGTH_UNIT ( ) NAMED_UNIT ( * ) SI_UNIT ( .MILLI., .METRE. ) );
#76 = CC_DESIGN_PERSON_AND_ORGANIZATION_ASSIGNMENT ( #230, #127, ( #211 ) ) ;
#77 =( BOUNDED_CURVE ( )  B_SPLINE_CURVE ( 3, ( #22, #117, #91, #174 ),
 .UNSPECIFIED., .F., .F. ) 
 B_SPLINE_CURVE_WITH_KNOTS ( ( 4, 4 ),
 ( 4.712388980384689674, 7.853981633974482790 ),
 .UNSPECIFIED. ) 
 CURVE ( )  GEOMETRIC_REPRESENTATION_ITEM ( )  RATIONAL_B_SPLINE_CURVE ( ( 1.000000000000000000, 0.3333333333333333703, 0.3333333333333333703, 1.000000000000000000 ) ) 
 REPRESENTATION_ITEM ( '' )  );
#78 = PERSON_AND_ORGANIZATION_ROLE ( 'classification_officer' ) ;
#79 = APPLICATION_CONTEXT ( 'configuration controlled 3d designs of mechanical parts and assemblies' ) ;
#80 = COORDINATED_UNIVERSAL_TIME_OFFSET ( 1, 0, .AHEAD. ) ;
#81 = APPROVAL_DATE_TIME ( #69, #229 ) ;
#82 = DIRECTION ( 'NONE',  ( 1.000000000000000000, 0.000000000000000000, 0.000000000000000000 ) ) ;
#83 = APPROVAL_ROLE ( '' ) ;
#84 = DIRECTION ( 'NONE',  ( 0.000000000000000000, 0.000000000000000000, -1.000000000000000000 ) ) ;
#85 = APPROVAL_STATUS ( 'not_yet_approved' ) ;
#86 = MECHANICAL_CONTEXT ( 'NONE', #97, 'mechanical' ) ;
#87 = APPROVAL_DATE_TIME ( #204, #89 ) ;
#88 = PERSON_AND_ORGANIZATION ( #61, #182 ) ;
#89 = APPROVAL ( #7, 'UNSPECIFIED' ) ;
#90 = APPROVAL ( #122, 'UNSPECIFIED' ) ;
#91 = CARTESIAN_POINT ( 'NONE',  ( 57.73502691896263173, -24.99999999999998224, 1.834581416489818394E-13 ) ) ;
#92 = SECURITY_CLASSIFICATION ( '', '', #201 ) ;
#93 = EDGE_CURVE ( 'NONE', #96, #131, #15, .T. ) ;
#94 =( NAMED_UNIT ( * ) PLANE_ANGLE_UNIT ( ) SI_UNIT ( $, .RADIAN. ) );
#95 = PERSON_AND_ORGANIZATION ( #61, #182 ) ;
#96 = VERTEX_POINT ( 'NONE', #47 ) ;
#97 = APPLICATION_CONTEXT ( 'configuration controlled 3d designs of mechanical parts and assemblies' ) ;
#98 = CARTESIAN_POINT ( 'NONE',  ( -28.86751345948109915, -25.00000000000000355, -49.99999999999997158 ) ) ;
#99 = CARTESIAN_POINT ( 'NONE',  ( -28.86751345948158232, -25.00000000000001066, 50.00000000000000000 ) ) ;
#100 = COORDINATED_UNIVERSAL_TIME_OFFSET ( 1, 0, .AHEAD. ) ;
#101 = EDGE_LOOP ( 'NONE', ( #206, #10 ) ) ;
#102 = DATE_AND_TIME ( #37, #155 ) ;
#103 = APPROVAL_PERSON_ORGANIZATION ( #95, #229, #58 ) ;
#104 = FACE_OUTER_BOUND ( 'NONE', #14, .T. ) ;
#105 = CC_DESIGN_APPROVAL ( #90, ( #92 ) ) ;
#106 = PRODUCT_DEFINITION_SHAPE ( 'NONE', 'NONE',  #172 ) ;
#107 = LOCAL_TIME ( 15, 6, 8.000000000000000000, #19 ) ;
#108 = CC_DESIGN_DATE_AND_TIME_ASSIGNMENT ( #102, #255, ( #92 ) ) ;
#109 =( BOUNDED_CURVE ( )  B_SPLINE_CURVE ( 3, ( #1, #153, #20, #176 ),
 .UNSPECIFIED., .F., .T. ) 
 B_SPLINE_CURVE_WITH_KNOTS ( ( 4, 4 ),
 ( 4.712388980384689674, 7.853981633974482790 ),
 .UNSPECIFIED. ) 
 CURVE ( )  GEOMETRIC_REPRESENTATION_ITEM ( )  RATIONAL_B_SPLINE_CURVE ( ( 1.000000000000000000, 0.3333333333333333703, 0.3333333333333333703, 1.000000000000000000 ) ) 
 REPRESENTATION_ITEM ( '' )  );
#110 = AXIS2_PLACEMENT_3D ( 'NONE', #218, #157, #235 ) ;
#111 = PERSON_AND_ORGANIZATION ( #61, #182 ) ;
#112 = APPROVAL_ROLE ( '' ) ;
#113 = CARTESIAN_POINT ( 'NONE',  ( 0.000000000000000000, 0.000000000000000000, -0.000000000000000000 ) ) ;
#114 = DATE_AND_TIME ( #198, #13 ) ;
#115 = SECURITY_CLASSIFICATION_LEVEL ( 'unclassified' ) ;
#116 = DESIGN_CONTEXT ( 'detailed design', #193, 'design' ) ;
#117 = CARTESIAN_POINT ( 'NONE',  ( 57.73502691896261041, 25.00000000000003197, 2.011343956277303172E-13 ) ) ;
#118 = DATE_AND_TIME ( #253, #43 ) ;
#119 = UNCERTAINTY_MEASURE_WITH_UNIT (LENGTH_MEASURE( 1.000000000000000082E-05 ), #75, 'distance_accuracy_value', 'NONE');
#120 = CC_DESIGN_PERSON_AND_ORGANIZATION_ASSIGNMENT ( #88, #31, ( #160 ) ) ;
#121 = CARTESIAN_POINT ( 'NONE',  ( -6.938893903907228378E-15, 25.00000000000000000, 0.000000000000000000 ) ) ;
#122 = APPROVAL_STATUS ( 'not_yet_approved' ) ;
#123 = CC_DESIGN_SECURITY_CLASSIFICATION ( #92, ( #211 ) ) ;
#124 = APPLICATION_CONTEXT ( 'configuration controlled 3d designs of mechanical parts and assemblies' ) ;
#125 = APPROVAL_PERSON_ORGANIZATION ( #164, #207, #112 ) ;
#126 = PRODUCT ( '3561', '3561', '', ( #184 ) ) ;
#127 = PERSON_AND_ORGANIZATION_ROLE ( 'creator' ) ;
#128 = CALENDAR_DATE ( 2021, 29, 9 ) ;
#129 = APPROVAL_DATE_TIME ( #167, #192 ) ;
#130 = PRODUCT_DEFINITION_SHAPE ( 'NONE', 'NONE',  #57 ) ;
#131 = VERTEX_POINT ( 'NONE', #136 ) ;
#132 = CYLINDRICAL_SURFACE ( 'NONE', #221, 25.00000000000000355 ) ;
#133 = CC_DESIGN_PERSON_AND_ORGANIZATION_ASSIGNMENT ( #225, #161, ( #211 ) ) ;
#134 = APPROVAL_STATUS ( 'not_yet_approved' ) ;
#135 = PRODUCT_RELATED_PRODUCT_CATEGORY ( 'detail', '', ( #126 ) ) ;
#136 = CARTESIAN_POINT ( 'NONE',  ( 5.204170427930421283E-15, -25.00000000000000000, 0.000000000000000000 ) ) ;
#137 = CC_DESIGN_APPROVAL ( #207, ( #57 ) ) ;
#138 = CYLINDRICAL_SURFACE ( 'NONE', #11, 25.00000000000001066 ) ;
#139 = DIRECTION ( 'NONE',  ( 0.8660254037844398178, 2.651438096812270862E-16, -0.4999999999999979461 ) ) ;
#140 = CARTESIAN_POINT ( 'NONE',  ( -28.86751345948112046, 24.99999999999997513, -49.99999999999998579 ) ) ;
#141 = LOCAL_TIME ( 15, 6, 8.000000000000000000, #242 ) ;
#142 = PERSON_AND_ORGANIZATION ( #61, #182 ) ;
#143 = DATE_TIME_ROLE ( 'creation_date' ) ;
#144 = CARTESIAN_POINT ( 'NONE',  ( -6.938893903907228378E-15, 25.00000000000000000, 0.000000000000000000 ) ) ;
#145 = ADVANCED_FACE ( 'NONE', ( #203 ), #38, .T. ) ;
#146 = CARTESIAN_POINT ( 'NONE',  ( -6.938893903907228378E-15, 25.00000000000000000, 0.000000000000000000 ) ) ;
#147 = CC_DESIGN_PERSON_AND_ORGANIZATION_ASSIGNMENT ( #42, #78, ( #92 ) ) ;
#148 = PERSON_AND_ORGANIZATION ( #61, #182 ) ;
#149 = AXIS2_PLACEMENT_3D ( 'NONE', #252, #256, #55 ) ;
#150 = APPROVAL_ROLE ( '' ) ;
#151 = APPROVAL_DATE_TIME ( #168, #207 ) ;
#152 = CYLINDRICAL_SURFACE ( 'NONE', #224, 25.00000000000000000 ) ;
#153 = CARTESIAN_POINT ( 'NONE',  ( -57.73502691896263173, 25.00000000000000000, -6.113664353895567220E-13 ) ) ;
#154 = DIRECTION ( 'NONE',  ( 0.8660254037844362651, 2.651438096812259522E-16, 0.5000000000000038858 ) ) ;
#155 = LOCAL_TIME ( 15, 6, 8.000000000000000000, #80 ) ;
#156 = PERSON_AND_ORGANIZATION ( #61, #182 ) ;
#157 = DIRECTION ( 'NONE',  ( -0.5000000000000041078, -4.592425496802587777E-16, 0.8660254037844363761 ) ) ;
#158 = APPLICATION_PROTOCOL_DEFINITION ( 'international standard', 'config_control_design', 1994, #79 ) ;
#159 = DIRECTION ( 'NONE',  ( 0.000000000000000000, 0.000000000000000000, 1.000000000000000000 ) ) ;
#160 = PRODUCT_DEFINITION_FORMATION_WITH_SPECIFIED_SOURCE ( 'ANY', '', #175, .NOT_KNOWN. ) ;
#161 = PERSON_AND_ORGANIZATION_ROLE ( 'design_supplier' ) ;
#162 = ADVANCED_FACE ( 'NONE', ( #199 ), #245, .T. ) ;
#163 = CARTESIAN_POINT ( 'NONE',  ( -28.86751345948161429, 25.00000000000000000, 50.00000000000000000 ) ) ;
#164 = PERSON_AND_ORGANIZATION ( #61, #182 ) ;
#165 = APPROVAL ( #32, 'UNSPECIFIED' ) ;
#166 =( GEOMETRIC_REPRESENTATION_CONTEXT ( 3 ) GLOBAL_UNCERTAINTY_ASSIGNED_CONTEXT ( ( #119 ) ) GLOBAL_UNIT_ASSIGNED_CONTEXT ( ( #75, #94, #180 ) ) REPRESENTATION_CONTEXT ( 'NONE', 'WORKASPACE' ) );
#167 = DATE_AND_TIME ( #222, #217 ) ;
#168 = DATE_AND_TIME ( #128, #243 ) ;
#169 = EDGE_CURVE ( 'NONE', #96, #131, #171, .T. ) ;
#170 = APPROVAL_PERSON_ORGANIZATION ( #142, #165, #150 ) ;
#171 =( BOUNDED_CURVE ( )  B_SPLINE_CURVE ( 3, ( #121, #179, #251, #54 ),
 .UNSPECIFIED., .F., .T. ) 
 B_SPLINE_CURVE_WITH_KNOTS ( ( 4, 4 ),
 ( 4.712388980384689674, 7.853981633974482790 ),
 .UNSPECIFIED. ) 
 CURVE ( )  GEOMETRIC_REPRESENTATION_ITEM ( )  RATIONAL_B_SPLINE_CURVE ( ( 1.000000000000000000, 0.3333333333333333703, 0.3333333333333333703, 1.000000000000000000 ) ) 
 REPRESENTATION_ITEM ( '' )  );
#172 = PRODUCT_DEFINITION ( 'UNKNOWN', '', #211, #223 ) ;
#173 = COORDINATED_UNIVERSAL_TIME_OFFSET ( 1, 0, .AHEAD. ) ;
#174 = CARTESIAN_POINT ( 'NONE',  ( 5.204170427930421283E-15, -25.00000000000000000, 0.000000000000000000 ) ) ;
#175 = PRODUCT ( '3561', '3561', '', ( #86 ) ) ;
#176 = CARTESIAN_POINT ( 'NONE',  ( 5.204170427930421283E-15, -25.00000000000000000, 0.000000000000000000 ) ) ;
#177 = CALENDAR_DATE ( 2021, 29, 9 ) ;
#178 = CALENDAR_DATE ( 2021, 29, 9 ) ;
#179 = CARTESIAN_POINT ( 'NONE',  ( 28.86751345948110625, 25.00000000000002132, 50.00000000000000000 ) ) ;
#180 =( NAMED_UNIT ( * ) SI_UNIT ( $, .STERADIAN. ) SOLID_ANGLE_UNIT ( ) );
#181 = APPROVAL_ROLE ( '' ) ;
#182 = ORGANIZATION ( 'UNSPECIFIED', 'UNSPECIFIED', '' ) ;
#183 = CARTESIAN_POINT ( 'NONE',  ( 0.000000000000000000, 0.000000000000000000, 0.000000000000000000 ) ) ;
#184 = MECHANICAL_CONTEXT ( 'NONE', #79, 'mechanical' ) ;
#185 = CC_DESIGN_PERSON_AND_ORGANIZATION_ASSIGNMENT ( #195, #34, ( #160 ) ) ;
#186 = PERSON_AND_ORGANIZATION_ROLE ( 'creator' ) ;
#187 = ADVANCED_FACE ( 'NONE', ( #262 ), #208, .T. ) ;
#188 = MANIFOLD_SOLID_BREP ( 'Kreismuster2', #254 ) ;
#189 = FACE_OUTER_BOUND ( 'NONE', #101, .T. ) ;
#190 = CC_DESIGN_PERSON_AND_ORGANIZATION_ASSIGNMENT ( #70, #247, ( #57 ) ) ;
#191 = ADVANCED_FACE ( 'NONE', ( #189 ), #152, .T. ) ;
#192 = APPROVAL ( #202, 'UNSPECIFIED' ) ;
#193 = APPLICATION_CONTEXT ( 'configuration controlled 3d designs of mechanical parts and assemblies' ) ;
#194 = PERSON_AND_ORGANIZATION ( #61, #182 ) ;
#195 = PERSON_AND_ORGANIZATION ( #61, #182 ) ;
#196 = FACE_OUTER_BOUND ( 'NONE', #66, .T. ) ;
#197 = DIRECTION ( 'NONE',  ( 0.4999999999999980016, -1.530808498934197734E-16, 0.8660254037844398178 ) ) ;
#198 = CALENDAR_DATE ( 2021, 29, 9 ) ;
#199 = FACE_OUTER_BOUND ( 'NONE', #36, .T. ) ;
#200 = ADVANCED_BREP_SHAPE_REPRESENTATION ( '3561', ( #188, #264 ), #166 ) ;
#201 = SECURITY_CLASSIFICATION_LEVEL ( 'unclassified' ) ;
#202 = APPROVAL_STATUS ( 'not_yet_approved' ) ;
#203 = FACE_OUTER_BOUND ( 'NONE', #60, .T. ) ;
#204 = DATE_AND_TIME ( #27, #52 ) ;
#205 = APPROVAL_DATE_TIME ( #59, #165 ) ;
#206 = ORIENTED_EDGE ( 'NONE', *, *, #231, .T. ) ;
#207 = APPROVAL ( #134, 'UNSPECIFIED' ) ;
#208 = CYLINDRICAL_SURFACE ( 'NONE', #18, 25.00000000000000000 ) ;
#209 = EDGE_CURVE ( 'NONE', #131, #96, #3, .T. ) ;
#210 = APPROVAL_PERSON_ORGANIZATION ( #194, #89, #83 ) ;
#211 = PRODUCT_DEFINITION_FORMATION_WITH_SPECIFIED_SOURCE ( 'ANY', '', #126, .NOT_KNOWN. ) ;
#212 = DIRECTION ( 'NONE',  ( -0.4999999999999919509, -4.592425496802550306E-16, -0.8660254037844432595 ) ) ;
#213 = ORIENTED_EDGE ( 'NONE', *, *, #93, .F. ) ;
#214 = CARTESIAN_POINT ( 'NONE',  ( 28.86751345948136915, -24.99999999999998934, -50.00000000000000000 ) ) ;
#215 = CC_DESIGN_APPROVAL ( #165, ( #160 ) ) ;
#216 = CARTESIAN_POINT ( 'NONE',  ( 5.204170427930421283E-15, -25.00000000000000000, 0.000000000000000000 ) ) ;
#217 = LOCAL_TIME ( 15, 6, 8.000000000000000000, #64 ) ;
#218 = CARTESIAN_POINT ( 'NONE',  ( -0.000000000000000000, 0.000000000000000000, 0.000000000000000000 ) ) ;
#219 = SECURITY_CLASSIFICATION ( '', '', #115 ) ;
#220 = APPROVAL_PERSON_ORGANIZATION ( #226, #192, #21 ) ;
#221 = AXIS2_PLACEMENT_3D ( 'NONE', #24, #197, #139 ) ;
#222 = CALENDAR_DATE ( 2021, 29, 9 ) ;
#223 = DESIGN_CONTEXT ( 'detailed design', #124, 'design' ) ;
#224 = AXIS2_PLACEMENT_3D ( 'NONE', #56, #25, #258 ) ;
#225 = PERSON_AND_ORGANIZATION ( #61, #182 ) ;
#226 = PERSON_AND_ORGANIZATION ( #61, #182 ) ;
#227 = EDGE_LOOP ( 'NONE', ( #41, #49 ) ) ;
#228 = CARTESIAN_POINT ( 'NONE',  ( -6.938893903907228378E-15, 25.00000000000000000, 0.000000000000000000 ) ) ;
#229 = APPROVAL ( #85, 'UNSPECIFIED' ) ;
#230 = PERSON_AND_ORGANIZATION ( #61, #182 ) ;
#231 = EDGE_CURVE ( 'NONE', #96, #131, #237, .T. ) ;
#232 = ORIENTED_EDGE ( 'NONE', *, *, #231, .F. ) ;
#233 = PERSON_AND_ORGANIZATION_ROLE ( 'design_owner' ) ;
#234 = DATE_AND_TIME ( #260, #107 ) ;
#235 = DIRECTION ( 'NONE',  ( 0.8660254037844362651, 2.651438096812259522E-16, 0.5000000000000038858 ) ) ;
#236 = ADVANCED_FACE ( 'NONE', ( #104 ), #138, .T. ) ;
#237 =( BOUNDED_CURVE ( )  B_SPLINE_CURVE ( 3, ( #146, #163, #99, #8 ),
 .UNSPECIFIED., .F., .T. ) 
 B_SPLINE_CURVE_WITH_KNOTS ( ( 4, 4 ),
 ( 4.712388980384689674, 7.853981633974482790 ),
 .UNSPECIFIED. ) 
 CURVE ( )  GEOMETRIC_REPRESENTATION_ITEM ( )  RATIONAL_B_SPLINE_CURVE ( ( 1.000000000000000000, 0.3333333333333333703, 0.3333333333333333703, 1.000000000000000000 ) ) 
 REPRESENTATION_ITEM ( '' )  );
#238 = PERSON_AND_ORGANIZATION_ROLE ( 'classification_officer' ) ;
#239 = ORIENTED_EDGE ( 'NONE', *, *, #51, .F. ) ;
#240 = CC_DESIGN_PERSON_AND_ORGANIZATION_ASSIGNMENT ( #4, #233, ( #126 ) ) ;
#241 = PERSON_AND_ORGANIZATION_ROLE ( 'design_owner' ) ;
#242 = COORDINATED_UNIVERSAL_TIME_OFFSET ( 1, 0, .AHEAD. ) ;
#243 = LOCAL_TIME ( 15, 6, 8.000000000000000000, #29 ) ;
#244 = CC_DESIGN_APPROVAL ( #229, ( #219 ) ) ;
#245 = CYLINDRICAL_SURFACE ( 'NONE', #110, 25.00000000000001066 ) ;
#246 = PERSON_AND_ORGANIZATION ( #61, #182 ) ;
#247 = PERSON_AND_ORGANIZATION_ROLE ( 'creator' ) ;
#248 = CC_DESIGN_PERSON_AND_ORGANIZATION_ASSIGNMENT ( #156, #238, ( #219 ) ) ;
#249 = ORIENTED_EDGE ( 'NONE', *, *, #26, .F. ) ;
#250 = CC_DESIGN_DATE_AND_TIME_ASSIGNMENT ( #114, #45, ( #57 ) ) ;
#251 = CARTESIAN_POINT ( 'NONE',  ( 28.86751345948114533, -24.99999999999998934, 50.00000000000000000 ) ) ;
#252 = CARTESIAN_POINT ( 'NONE',  ( 0.000000000000000000, 0.000000000000000000, 0.000000000000000000 ) ) ;
#253 = CALENDAR_DATE ( 2021, 29, 9 ) ;
#254 = CLOSED_SHELL ( 'NONE', ( #187, #263, #162, #236, #191, #145 ) ) ;
#255 = DATE_TIME_ROLE ( 'classification_date' ) ;
#256 = DIRECTION ( 'NONE',  ( 0.000000000000000000, 0.000000000000000000, 1.000000000000000000 ) ) ;
#257 = DATE_TIME_ROLE ( 'classification_date' ) ;
#258 = DIRECTION ( 'NONE',  ( 0.000000000000000000, 0.000000000000000000, 1.000000000000000000 ) ) ;
#259 = CARTESIAN_POINT ( 'NONE',  ( 5.204170427930421283E-15, -25.00000000000000000, 0.000000000000000000 ) ) ;
#260 = CALENDAR_DATE ( 2021, 29, 9 ) ;
#261 = CC_DESIGN_SECURITY_CLASSIFICATION ( #219, ( #160 ) ) ;
#262 = FACE_OUTER_BOUND ( 'NONE', #227, .T. ) ;
#263 = ADVANCED_FACE ( 'NONE', ( #196 ), #132, .T. ) ;
#264 = AXIS2_PLACEMENT_3D ( 'NONE', #6, #159, #30 ) ;
#265 = APPROVAL_DATE_TIME ( #40, #90 ) ;
#266 = SHAPE_DEFINITION_REPRESENTATION ( #106, #200 ) ;
#267 = APPLICATION_PROTOCOL_DEFINITION ( 'international standard', 'config_control_design', 1994, #193 ) ;
ENDSEC;
END-ISO-10303-21;
