ISO-10303-21;
HEADER;
FILE_DESCRIPTION (( 'STEP AP203' ),
    '1' );
FILE_NAME ('5630-130.step',
    '2020-05-18T06:55:29',
    ( '' ),
    ( '' ),
    'SwSTEP 2.0',
    'SolidWorks 2015',
    '' );
FILE_SCHEMA (( 'CONFIG_CONTROL_DESIGN' ));
ENDSEC;

DATA;
#1 = DATE_AND_TIME ( #82, #138 ) ;
#2 = B_SPLINE_CURVE_WITH_KNOTS ( 'NONE', 3,
 ( #77, #128, #197, #12, #218, #157, #198, #290, #177, #58, #220, #83, #243, #106, #266, #61, #292, #48, #86, #90, #111, #225, #224, #226, #269, #268, #134, #135, #180, #271, #201, #21, #247, #87, #223, #245, #62, #291, #246, #108, #63, #110, #89, #160, #159, #45, #136, #293, #19, #179, #203, #158, #18, #178, #200, #46, #213, #105, #148, #212, #71, #29, #129, #192, #188, #242, #57, #194, #234, #8, #265, #262, #144, #76, #236, #7, #52, #286, #164, #187, #55, #97, #153 ),
 .UNSPECIFIED., .T., .F.,
 ( 4, 2, 2, 2, 2, 2, 2, 2, 1, 2, 2, 2, 2, 2, 2, 2, 2, 2, 2, 2, 2, 2, 2, 2, 2, 2, 2, 2, 2, 2, 2, 2, 2, 2, 2, 2, 2, 2, 2, 2, 2, 4 ),
 ( 0.0000000000000000000, 0.001172310915088373300, 0.001758466372632555200, 0.002344621830176736700, 0.003516932745265100500, 0.004689243660353462900, 0.005861554575441827600, 0.006447710032986005100, 0.007033865490530184400, 0.007620020948074362000, 0.008206176405618541300, 0.009378487320706894700, 0.01055079823579525200, 0.01172310915088360800, 0.01230926460842778800, 0.01289542006597196500, 0.01406773098106034100, 0.01524004189614871500, 0.01582619735369290500, 0.01641235281123709300, 0.01758466372632546900, 0.01875697464141382700, 0.01992928555650218600, 0.02051544101404637100, 0.02110159647159055500, 0.02227390738667893400, 0.02344621830176731400, 0.02461852921685569300, 0.02579084013194406600, 0.02637699558948824700, 0.02696315104703242400, 0.02813546196212075900, 0.02930777287720908900, 0.02989392833475325300, 0.03048008379229741700, 0.03165239470738575500, 0.03282470562247408200, 0.03399701653756241600, 0.03458317199510656900, 0.03516932745265073000, 0.03634163836773902200, 0.03751394928282731500 ),
 .UNSPECIFIED. ) ;
#3 = DATE_AND_TIME ( #64, #53 ) ;
#4 = CARTESIAN_POINT ( 'NONE',  ( 0.5000000000000002200, 56.04926508040731600, -5.229243277244322000 ) ) ;
#5 = CARTESIAN_POINT ( 'NONE',  ( 0.5000000000000001100, 64.63727756147788700, -2.058673637225261600 ) ) ;
#6 = CARTESIAN_POINT ( 'NONE',  ( 0.5000000000000002200, 60.03555549315872500, -5.912856472397926700 ) ) ;
#7 = CARTESIAN_POINT ( 'NONE',  ( -0.5000000000000001100, 56.94435205194891100, -5.641098352635306200 ) ) ;
#8 = CARTESIAN_POINT ( 'NONE',  ( -0.5000000000000001100, 60.04287990464311500, -5.921276686447218800 ) ) ;
#9 = ORGANIZATION ( 'UNSPECIFIED', 'UNSPECIFIED', '' ) ;
#10 = CARTESIAN_POINT ( 'NONE',  ( 0.4999999999999998900, 63.34782050382016600, 4.151218584170671000 ) ) ;
#11 = PLANE ( 'NONE',  #274 ) ;
#12 = CARTESIAN_POINT ( 'NONE',  ( -0.5000000000000001100, 53.64129169404920100, -2.710612010124860300 ) ) ;
#13 = DATE_TIME_ROLE ( 'classification_date' ) ;
#14 = CARTESIAN_POINT ( 'NONE',  ( 0.5000000000000000000, 56.46845357787847800, 5.444389478292856100 ) ) ;
#15 = CARTESIAN_POINT ( 'NONE',  ( 0.4999999999999998900, 62.60845729736291800, 4.796193334232005300 ) ) ;
#16 = APPROVAL_ROLE ( '' ) ;
#17 = CARTESIAN_POINT ( 'NONE',  ( 0.4999999999999998900, 63.06894371129881400, 4.425263052150287800 ) ) ;
#18 = CARTESIAN_POINT ( 'NONE',  ( -0.4999999999999998900, 64.94120092774861100, -0.9122970672308489100 ) ) ;
#19 = CARTESIAN_POINT ( 'NONE',  ( -0.4999999999999998900, 64.83825391578493200, 1.430031125857768500 ) ) ;
#20 = EDGE_LOOP ( 'NONE', ( #263 ) ) ;
#21 = CARTESIAN_POINT ( 'NONE',  ( -0.4999999999999997800, 59.12871293974154000, 6.011630086243334500 ) ) ;
#22 = MANIFOLD_SOLID_BREP ( 'Schnitt-Linear austragen3', #217 ) ;
#23 = APPROVAL ( #150, 'UNSPECIFIED' ) ;
#24 = COORDINATED_UNIVERSAL_TIME_OFFSET ( 1, 0, .AHEAD. ) ;
#25 = ADVANCED_FACE ( 'NONE', ( #140 ), #281, .F. ) ;
#26 = CARTESIAN_POINT ( 'NONE',  ( 0.5000000000000000000, 62.22499931086167600, -5.073688614843171700 ) ) ;
#27 = CARTESIAN_POINT ( 'NONE',  ( 0.4999999999999998900, 61.70544903197937000, -5.358036472482070600 ) ) ;
#28 = CC_DESIGN_PERSON_AND_ORGANIZATION_ASSIGNMENT ( #248, #101, ( #206 ) ) ;
#29 = CARTESIAN_POINT ( 'NONE',  ( -0.5000000000000000000, 63.15823899984576400, -4.341555635103022200 ) ) ;
#30 = CARTESIAN_POINT ( 'NONE',  ( 0.4999999999999998900, 63.91958032112268700, -3.454328347178258400 ) ) ;
#31 = CC_DESIGN_DATE_AND_TIME_ASSIGNMENT ( #181, #13, ( #176 ) ) ;
#32 = APPLICATION_CONTEXT ( 'configuration controlled 3d designs of mechanical parts and assemblies' ) ;
#33 = CARTESIAN_POINT ( 'NONE',  ( 0.5000000000000000000, 59.25097136347577700, -6.007626891720002900 ) ) ;
#34 =( LENGTH_UNIT ( ) NAMED_UNIT ( * ) SI_UNIT ( .MILLI., .METRE. ) );
#35 = CARTESIAN_POINT ( 'NONE',  ( 0.4999999999999998900, 53.16403880231131000, -1.416918028748051600 ) ) ;
#36 =( NAMED_UNIT ( * ) SI_UNIT ( $, .STERADIAN. ) SOLID_ANGLE_UNIT ( ) );
#37 = CARTESIAN_POINT ( 'NONE',  ( 0.5000000000000001100, 53.87217498501352300, 3.125359687612002900 ) ) ;
#38 = COORDINATED_UNIVERSAL_TIME_OFFSET ( 1, 0, .AHEAD. ) ;
#39 = CARTESIAN_POINT ( 'NONE',  ( 0.5000000000000000000, 52.00000000000000000, -6.000000000000000000 ) ) ;
#40 = CARTESIAN_POINT ( 'NONE',  ( 0.4999999999999997800, 54.39795135229069700, -3.852569588534785300 ) ) ;
#41 = CC_DESIGN_SECURITY_CLASSIFICATION ( #176, ( #42 ) ) ;
#42 = PRODUCT_DEFINITION_FORMATION_WITH_SPECIFIED_SOURCE ( 'ANY', '', #206, .NOT_KNOWN. ) ;
#43 = CARTESIAN_POINT ( 'NONE',  ( 0.5000000000000001100, 53.54188108179252500, -2.528069838620742500 ) ) ;
#44 = CARTESIAN_POINT ( 'NONE',  ( 0.5000000000000001100, 63.85046435930878800, 3.550679020153859600 ) ) ;
#45 = CARTESIAN_POINT ( 'NONE',  ( -0.4999999999999998900, 64.44015506422620400, 2.534209171336927000 ) ) ;
#46 = CARTESIAN_POINT ( 'NONE',  ( -0.5000000000000003300, 64.50205744700046800, -2.420809409069002000 ) ) ;
#47 = ADVANCED_BREP_SHAPE_REPRESENTATION ( '5630-130', ( #22, #182 ), #49 ) ;
#48 = CARTESIAN_POINT ( 'NONE',  ( -0.4999999999999998900, 53.86667355415250600, 3.116295669753269800 ) ) ;
#49 =( GEOMETRIC_REPRESENTATION_CONTEXT ( 3 ) GLOBAL_UNCERTAINTY_ASSIGNED_CONTEXT ( ( #112 ) ) GLOBAL_UNIT_ASSIGNED_CONTEXT ( ( #34, #214, #36 ) ) REPRESENTATION_CONTEXT ( 'NONE', 'WORKASPACE' ) );
#50 = APPROVAL_DATE_TIME ( #1, #73 ) ;
#51 = DIRECTION ( 'NONE',  ( -1.000000000000000000, 0.0000000000000000000, 0.0000000000000000000 ) ) ;
#52 = CARTESIAN_POINT ( 'NONE',  ( -0.5000000000000000000, 56.57942265769165900, -5.494556851994260200 ) ) ;
#53 = LOCAL_TIME ( 8, 55, 29.00000000000000000, #38 ) ;
#54 = CARTESIAN_POINT ( 'NONE',  ( 0.5000000000000001100, 53.21338396543656300, -1.606374132465390200 ) ) ;
#55 = CARTESIAN_POINT ( 'NONE',  ( -0.5000000000000001100, 54.93419401568818500, -4.432203978889123000 ) ) ;
#56 = CARTESIAN_POINT ( 'NONE',  ( 0.4999999999999998900, 64.07560595335071700, 3.220561924014143900 ) ) ;
#57 = CARTESIAN_POINT ( 'NONE',  ( -0.5000000000000000000, 61.17550223166756500, -5.594369317457173800 ) ) ;
#58 = CARTESIAN_POINT ( 'NONE',  ( -0.5000000000000000000, 52.99048560671470700, -0.2604422592394866100 ) ) ;
#59 = CARTESIAN_POINT ( 'NONE',  ( 0.4999999999999996700, 61.06468948001101200, 5.646659707700393900 ) ) ;
#60 = CARTESIAN_POINT ( 'NONE',  ( 0.4999999999999998900, 54.84637279799680700, 4.350036755197482600 ) ) ;
#61 = CARTESIAN_POINT ( 'NONE',  ( -0.5000000000000000000, 53.50529688096848700, 2.423317793212486300 ) ) ;
#62 = CARTESIAN_POINT ( 'NONE',  ( -0.5000000000000000000, 61.41665292780356800, 5.494421974118452600 ) ) ;
#63 = CARTESIAN_POINT ( 'NONE',  ( -0.4999999999999997800, 63.05937540801644300, 4.433844057517664100 ) ) ;
#64 = CALENDAR_DATE ( 2020, 18, 5 ) ;
#65 = VERTEX_POINT ( 'NONE', #171 ) ;
#66 = CC_DESIGN_APPROVAL ( #143, ( #42 ) ) ;
#67 = APPROVAL_DATE_TIME ( #161, #23 ) ;
#68 = CARTESIAN_POINT ( 'NONE',  ( 0.4999999999999998900, 64.40668255182676200, -2.604882122808616500 ) ) ;
#69 = CARTESIAN_POINT ( 'NONE',  ( 0.5000000000000001100, 55.54797923070712100, -4.913030037780800700 ) ) ;
#70 = CC_DESIGN_DATE_AND_TIME_ASSIGNMENT ( #3, #216, ( #288 ) ) ;
#71 = CARTESIAN_POINT ( 'NONE',  ( -0.4999999999999998900, 63.43168348509446700, -4.061482877544667000 ) ) ;
#72 = CARTESIAN_POINT ( 'NONE',  ( 0.4999999999999998900, 65.00535989475112300, 0.2555900990307528000 ) ) ;
#73 = APPROVAL ( #173, 'UNSPECIFIED' ) ;
#74 = DIRECTION ( 'NONE',  ( -0.0000000000000000000, -0.0000000000000000000, -1.000000000000000000 ) ) ;
#75 = CARTESIAN_POINT ( 'NONE',  ( 0.5000000000000001100, 64.60454727228372500, 2.173072414711140400 ) ) ;
#76 = CARTESIAN_POINT ( 'NONE',  ( -0.5000000000000001100, 57.69975064934123300, -5.871126760831630900 ) ) ;
#77 = CARTESIAN_POINT ( 'NONE',  ( -0.5000000000000000000, 54.39795135229069700, -3.852569588534783500 ) ) ;
#78 = APPROVAL_STATUS ( 'not_yet_approved' ) ;
#79 = B_SPLINE_CURVE_WITH_KNOTS ( 'NONE', 3,
 ( #231, #145, #254, #94, #69, #232, #4, #98, #116, #278, #95, #142, #33, #276, #6, #118, #141, #165, #210, #27, #26, #186, #233, #258, #30, #209, #68, #277, #5, #96, #255, #119, #279, #72, #122, #239, #283, #80, #75, #193, #56, #44, #10, #17, #15, #285, #149, #104, #241, #59, #151, #131, #221, #267, #175, #264, #199, #215, #14, #100, #261, #102, #60, #85, #237, #174, #37, #259, #287, #244, #126, #169, #289, #155, #133, #107, #35, #54, #172, #43, #195, #130, #40 ),
 .UNSPECIFIED., .T., .F.,
 ( 4, 2, 2, 2, 2, 2, 2, 2, 1, 2, 2, 2, 2, 2, 2, 2, 2, 2, 2, 2, 2, 2, 2, 2, 2, 2, 2, 2, 2, 2, 2, 2, 2, 2, 2, 2, 2, 2, 2, 2, 2, 4 ),
 ( 0.0000000000000000000, 0.001172310033877122000, 0.001758465050815682900, 0.002344620067754244000, 0.003516930101631385300, 0.004689240135508526200, 0.005861550169385667900, 0.006447705186324248300, 0.007033860203262829600, 0.007620015220201410000, 0.008206170237139992100, 0.009378480271017133900, 0.01055079030489427600, 0.01172310033877141900, 0.01230925535571000300, 0.01289541037264858200, 0.01406772040652573400, 0.01524003044040288400, 0.01582618545734145900, 0.01641234047428003600, 0.01758465050815718700, 0.01875696054203434100, 0.01992927057591149100, 0.02051542559285006800, 0.02110158060978864500, 0.02227389064366579500, 0.02344620067754294900, 0.02461851071142010000, 0.02579082074529724700, 0.02637697576223582700, 0.02696313077917440400, 0.02813544081305155800, 0.02930775084692870800, 0.02989390586386727800, 0.03048006088080584500, 0.03165237091468299500, 0.03282468094856014200, 0.03399699098243728900, 0.03458314599937586200, 0.03516930101631442900, 0.03634161105019158300, 0.03751392108406873700 ),
 .UNSPECIFIED. ) ;
#80 = CARTESIAN_POINT ( 'NONE',  ( 0.5000000000000002200, 64.78141550425162600, 1.609857579148594300 ) ) ;
#81 = APPROVAL_ROLE ( '' ) ;
#82 = CALENDAR_DATE ( 2020, 18, 5 ) ;
#83 = CARTESIAN_POINT ( 'NONE',  ( -0.5000000000000000000, 53.05550991341731800, 0.9188343755713002100 ) ) ;
#84 = CC_DESIGN_PERSON_AND_ORGANIZATION_ASSIGNMENT ( #230, #219, ( #42 ) ) ;
#85 = CARTESIAN_POINT ( 'NONE',  ( 0.5000000000000001100, 54.57096163949219700, 4.068984808050582400 ) ) ;
#86 = CARTESIAN_POINT ( 'NONE',  ( -0.4999999999999998900, 54.08130940034895700, 3.444957941242515500 ) ) ;
#87 = CARTESIAN_POINT ( 'NONE',  ( -0.5000000000000003300, 60.30345940766210300, 5.869271623003419900 ) ) ;
#88 = SHAPE_DEFINITION_REPRESENTATION ( #229, #47 ) ;
#89 = CARTESIAN_POINT ( 'NONE',  ( -0.4999999999999998900, 63.84795149529070800, 3.554110296307838400 ) ) ;
#90 = CARTESIAN_POINT ( 'NONE',  ( -0.5000000000000000000, 54.19784387509782400, 3.605608879612781900 ) ) ;
#91 = CC_DESIGN_PERSON_AND_ORGANIZATION_ASSIGNMENT ( #146, #168, ( #42 ) ) ;
#92 = COORDINATED_UNIVERSAL_TIME_OFFSET ( 1, 0, .AHEAD. ) ;
#93 = CALENDAR_DATE ( 2020, 18, 5 ) ;
#94 = CARTESIAN_POINT ( 'NONE',  ( 0.5000000000000000000, 55.38949725065980100, -4.797787260277377900 ) ) ;
#95 = CARTESIAN_POINT ( 'NONE',  ( 0.5000000000000001100, 58.08009775390665700, -5.942300798328623100 ) ) ;
#96 = CARTESIAN_POINT ( 'NONE',  ( 0.5000000000000001100, 64.70144310717830600, -1.873427611447413100 ) ) ;
#97 = CARTESIAN_POINT ( 'NONE',  ( -0.5000000000000000000, 54.65248178406115900, -4.156451733000276100 ) ) ;
#98 = CARTESIAN_POINT ( 'NONE',  ( 0.5000000000000000000, 56.57235402255697200, -5.501992448362586600 ) ) ;
#99 = DIRECTION ( 'NONE',  ( 0.0000000000000000000, 0.0000000000000000000, 1.000000000000000000 ) ) ;
#100 = CARTESIAN_POINT ( 'NONE',  ( 0.4999999999999998900, 56.29196855509128700, 5.358807588351280200 ) ) ;
#101 = PERSON_AND_ORGANIZATION_ROLE ( 'design_owner' ) ;
#102 = CARTESIAN_POINT ( 'NONE',  ( 0.5000000000000000000, 55.45350248089656000, 4.857453028486030900 ) ) ;
#103 = PERSON_AND_ORGANIZATION_ROLE ( 'classification_officer' ) ;
#104 = CARTESIAN_POINT ( 'NONE',  ( 0.4999999999999997800, 61.94989935815723900, 5.227270985848426800 ) ) ;
#105 = CARTESIAN_POINT ( 'NONE',  ( -0.5000000000000001100, 64.12984789845093300, -3.115054031264113300 ) ) ;
#106 = CARTESIAN_POINT ( 'NONE',  ( -0.5000000000000000000, 53.29350448298526300, 1.871251705765097500 ) ) ;
#107 = CARTESIAN_POINT ( 'NONE',  ( 0.5000000000000001100, 53.08378280498986600, -1.031936690714815300 ) ) ;
#108 = CARTESIAN_POINT ( 'NONE',  ( -0.5000000000000001100, 62.44807521134217200, 4.924486643218569000 ) ) ;
#109 = EDGE_CURVE ( 'NONE', #65, #65, #79, .T. ) ;
#110 = CARTESIAN_POINT ( 'NONE',  ( -0.5000000000000000000, 63.34488544627868100, 4.154291602221510600 ) ) ;
#111 = CARTESIAN_POINT ( 'NONE',  ( -0.4999999999999997800, 54.56895211702300200, 4.067186199504478200 ) ) ;
#112 = UNCERTAINTY_MEASURE_WITH_UNIT (LENGTH_MEASURE( 1.000000000000000100E-005 ), #34, 'distance_accuracy_value', 'NONE');
#113 = EDGE_CURVE ( 'NONE', #114, #114, #2, .T. ) ;
#114 = VERTEX_POINT ( 'NONE', #156 ) ;
#115 = ADVANCED_FACE ( 'NONE', ( #249 ), #11, .F. ) ;
#116 = CARTESIAN_POINT ( 'NONE',  ( 0.5000000000000002200, 56.93492762740179800, -5.647855764515232300 ) ) ;
#117 = TOROIDAL_SURFACE ( 'NONE', #222, 59.00000000000000700, 6.000000000000000000 ) ;
#118 = CARTESIAN_POINT ( 'NONE',  ( 0.5000000000000000000, 60.41998051092414100, -5.832352710248137800 ) ) ;
#119 = CARTESIAN_POINT ( 'NONE',  ( 0.5000000000000001100, 64.93941329479972100, -0.9259148337047822300 ) ) ;
#120 = AXIS2_PLACEMENT_3D ( 'NONE', #191, #51, #235 ) ;
#121 = DIRECTION ( 'NONE',  ( -1.000000000000000000, 0.0000000000000000000, 0.0000000000000000000 ) ) ;
#122 = CARTESIAN_POINT ( 'NONE',  ( 0.5000000000000000000, 64.94241053004989800, 0.8384934241114201400 ) ) ;
#123 = APPROVAL_ROLE ( '' ) ;
#124 = EDGE_LOOP ( 'NONE', ( #253 ) ) ;
#125 = APPROVAL_PERSON_ORGANIZATION ( #211, #23, #123 ) ;
#126 = CARTESIAN_POINT ( 'NONE',  ( 0.5000000000000001100, 53.13064517071041600, 1.315961268247062300 ) ) ;
#127 = DIRECTION ( 'NONE',  ( 1.000000000000000000, -0.0000000000000000000, 0.0000000000000000000 ) ) ;
#128 = CARTESIAN_POINT ( 'NONE',  ( -0.5000000000000001100, 54.14342092052021400, -3.548687444069270400 ) ) ;
#129 = CARTESIAN_POINT ( 'NONE',  ( -0.5000000000000000000, 62.55213573297582700, -4.850221788014968300 ) ) ;
#130 = CARTESIAN_POINT ( 'NONE',  ( 0.4999999999999997800, 54.14342088027389400, -3.548687396019485800 ) ) ;
#131 = CARTESIAN_POINT ( 'NONE',  ( 0.5000000000000000000, 59.92169624568155200, 5.941350382687959500 ) ) ;
#132 = CC_DESIGN_APPROVAL ( #23, ( #288 ) ) ;
#133 = CARTESIAN_POINT ( 'NONE',  ( 0.5000000000000000000, 53.05282112157791400, -0.8353867464447021200 ) ) ;
#134 = CARTESIAN_POINT ( 'NONE',  ( -0.4999999999999998900, 57.38232352888597600, 5.781762850746496000 ) ) ;
#135 = CARTESIAN_POINT ( 'NONE',  ( -0.5000000000000001100, 57.57472606189108400, 5.832119386510979300 ) ) ;
#136 = CARTESIAN_POINT ( 'NONE',  ( -0.4999999999999998900, 64.59431083742777000, 2.172704136454196400 ) ) ;
#137 = PERSON ( 'UNSPECIFIED', 'UNSPECIFIED', 'UNSPECIFIED', ('UNSPECIFIED'), ('UNSPECIFIED'), ('UNSPECIFIED') ) ;
#138 = LOCAL_TIME ( 8, 55, 29.00000000000000000, #24 ) ;
#139 = CC_DESIGN_APPROVAL ( #73, ( #176 ) ) ;
#140 = FACE_OUTER_BOUND ( 'NONE', #227, .T. ) ;
#141 = CARTESIAN_POINT ( 'NONE',  ( 0.4999999999999998900, 60.79855872712824500, -5.733421380777322400 ) ) ;
#142 = CARTESIAN_POINT ( 'NONE',  ( 0.4999999999999998900, 58.85991703866859800, -6.011170549497124100 ) ) ;
#143 = APPROVAL ( #78, 'UNSPECIFIED' ) ;
#144 = CARTESIAN_POINT ( 'NONE',  ( -0.4999999999999998900, 58.08402175865374100, -5.942924562994084800 ) ) ;
#145 = CARTESIAN_POINT ( 'NONE',  ( 0.4999999999999998900, 54.65248182430749300, -4.156451781050076700 ) ) ;
#146 = PERSON_AND_ORGANIZATION ( #137, #9 ) ;
#147 = APPLICATION_PROTOCOL_DEFINITION ( 'international standard', 'config_control_design', 1994, #280 ) ;
#148 = CARTESIAN_POINT ( 'NONE',  ( -0.4999999999999998900, 63.91418204934129200, -3.445358025528917800 ) ) ;
#149 = CARTESIAN_POINT ( 'NONE',  ( 0.5000000000000000000, 62.11874036144592300, 5.128305211999238700 ) ) ;
#150 = APPROVAL_STATUS ( 'not_yet_approved' ) ;
#151 = CARTESIAN_POINT ( 'NONE',  ( 0.5000000000000000000, 60.30621258359330700, 5.868948362136483100 ) ) ;
#152 = ORIENTED_EDGE ( 'NONE', *, *, #113, .F. ) ;
#153 = CARTESIAN_POINT ( 'NONE',  ( -0.5000000000000000000, 54.39795135229069700, -3.852569588534783500 ) ) ;
#154 = APPROVAL_PERSON_ORGANIZATION ( #190, #143, #81 ) ;
#155 = CARTESIAN_POINT ( 'NONE',  ( 0.5000000000000000000, 52.98983793404709500, -0.2479052396446808100 ) ) ;
#156 = CARTESIAN_POINT ( 'NONE',  ( -0.5000000000000000000, 54.39795135229069700, -3.852569588534784400 ) ) ;
#157 = CARTESIAN_POINT ( 'NONE',  ( -0.5000000000000001100, 53.40114961209562900, -2.172064049818621400 ) ) ;
#158 = CARTESIAN_POINT ( 'NONE',  ( -0.5000000000000001100, 65.00934740272478500, -0.1328913758816235300 ) ) ;
#159 = CARTESIAN_POINT ( 'NONE',  ( -0.5000000000000000000, 64.35324633325852500, 2.713079856157543500 ) ) ;
#160 = CARTESIAN_POINT ( 'NONE',  ( -0.4999999999999996700, 64.06883409894005900, 3.231490695521226400 ) ) ;
#161 = DATE_AND_TIME ( #252, #257 ) ;
#162 = PERSON_AND_ORGANIZATION ( #137, #9 ) ;
#163 = CARTESIAN_POINT ( 'NONE',  ( 0.0000000000000000000, 0.0000000000000000000, 0.0000000000000000000 ) ) ;
#164 = CARTESIAN_POINT ( 'NONE',  ( -0.5000000000000000000, 55.88152882623762000, -5.142159729027647500 ) ) ;
#165 = CARTESIAN_POINT ( 'NONE',  ( 0.5000000000000002200, 61.16562007830356200, -5.598191948246297400 ) ) ;
#166 = CC_DESIGN_PERSON_AND_ORGANIZATION_ASSIGNMENT ( #205, #282, ( #288 ) ) ;
#167 = MECHANICAL_CONTEXT ( 'NONE', #280, 'mechanical' ) ;
#168 = PERSON_AND_ORGANIZATION_ROLE ( 'creator' ) ;
#169 = CARTESIAN_POINT ( 'NONE',  ( 0.5000000000000000000, 53.05618935938702000, 0.9233421756515357600 ) ) ;
#170 = COORDINATED_UNIVERSAL_TIME_OFFSET ( 1, 0, .AHEAD. ) ;
#171 = CARTESIAN_POINT ( 'NONE',  ( 0.5000000000000000000, 54.39795135229069700, -3.852569588534784400 ) ) ;
#172 = CARTESIAN_POINT ( 'NONE',  ( 0.5000000000000001100, 53.38855806544496800, -2.165807604013152900 ) ) ;
#173 = APPROVAL_STATUS ( 'not_yet_approved' ) ;
#174 = CARTESIAN_POINT ( 'NONE',  ( 0.5000000000000002200, 54.08783468567457200, 3.454273132901993100 ) ) ;
#175 = CARTESIAN_POINT ( 'NONE',  ( 0.5000000000000001100, 57.96281603637591900, 5.923071320606687200 ) ) ;
#176 = SECURITY_CLASSIFICATION ( '', '', #240 ) ;
#177 = CARTESIAN_POINT ( 'NONE',  ( -0.5000000000000000000, 53.07547719355334700, -1.040037126739046200 ) ) ;
#178 = CARTESIAN_POINT ( 'NONE',  ( -0.5000000000000000000, 64.86766041910877300, -1.304610499775047200 ) ) ;
#179 = CARTESIAN_POINT ( 'NONE',  ( -0.5000000000000000000, 64.91973779098853500, 1.044067889423691700 ) ) ;
#180 = CARTESIAN_POINT ( 'NONE',  ( -0.4999999999999998900, 57.96051598793031400, 5.912934147026171600 ) ) ;
#181 = DATE_AND_TIME ( #93, #207 ) ;
#182 = AXIS2_PLACEMENT_3D ( 'NONE', #163, #99, #260 ) ;
#183 = FACE_OUTER_BOUND ( 'NONE', #124, .T. ) ;
#184 = CALENDAR_DATE ( 2020, 18, 5 ) ;
#185 = FACE_OUTER_BOUND ( 'NONE', #20, .T. ) ;
#186 = CARTESIAN_POINT ( 'NONE',  ( 0.4999999999999998900, 62.54793089286379600, -4.852948776535005700 ) ) ;
#187 = CARTESIAN_POINT ( 'NONE',  ( -0.5000000000000000000, 55.55176900160388000, -4.927669702136023000 ) ) ;
#188 = CARTESIAN_POINT ( 'NONE',  ( -0.5000000000000000000, 61.71318967337840900, -5.354044263212918200 ) ) ;
#189 = ORIENTED_EDGE ( 'NONE', *, *, #109, .F. ) ;
#190 = PERSON_AND_ORGANIZATION ( #137, #9 ) ;
#191 = CARTESIAN_POINT ( 'NONE',  ( -0.5000000000000000000, 52.00000000000000000, -6.000000000000000000 ) ) ;
#192 = CARTESIAN_POINT ( 'NONE',  ( -0.5000000000000005600, 62.22712542796367100, -5.072023806654613100 ) ) ;
#193 = CARTESIAN_POINT ( 'NONE',  ( 0.5000000000000001100, 64.45141940570083200, 2.532682208248561800 ) ) ;
#194 = CARTESIAN_POINT ( 'NONE',  ( -0.5000000000000000000, 60.98889750223720100, -5.663470992889426000 ) ) ;
#195 = CARTESIAN_POINT ( 'NONE',  ( 0.5000000000000001100, 53.92135075799107100, -3.222977279264680000 ) ) ;
#196 = DIRECTION ( 'NONE',  ( 0.0000000000000000000, 0.0000000000000000000, -1.000000000000000000 ) ) ;
#197 = CARTESIAN_POINT ( 'NONE',  ( -0.5000000000000002200, 53.92296191013917200, -3.224907815309362200 ) ) ;
#198 = CARTESIAN_POINT ( 'NONE',  ( -0.5000000000000001100, 53.33224570598742500, -1.985394425649727300 ) ) ;
#199 = CARTESIAN_POINT ( 'NONE',  ( 0.5000000000000000000, 57.01798290667390000, 5.667350461124532200 ) ) ;
#200 = CARTESIAN_POINT ( 'NONE',  ( -0.5000000000000001100, 64.64766548063565200, -2.058177767595725300 ) ) ;
#201 = CARTESIAN_POINT ( 'NONE',  ( -0.4999999999999998900, 58.73717943225600600, 6.007070711972288800 ) ) ;
#202 = APPROVAL_DATE_TIME ( #238, #143 ) ;
#203 = CARTESIAN_POINT ( 'NONE',  ( -0.4999999999999998900, 65.00552431680293400, 0.2583623991891995100 ) ) ;
#204 = DESIGN_CONTEXT ( 'detailed design', #32, 'design' ) ;
#205 = PERSON_AND_ORGANIZATION ( #137, #9 ) ;
#206 = PRODUCT ( '5630-130', '5630-130', '', ( #167 ) ) ;
#207 = LOCAL_TIME ( 8, 55, 29.00000000000000000, #170 ) ;
#208 = ADVANCED_FACE ( 'NONE', ( #185, #183 ), #117, .T. ) ;
#209 = CARTESIAN_POINT ( 'NONE',  ( 0.4999999999999998900, 64.13361641599784900, -3.127368818886013800 ) ) ;
#210 = CARTESIAN_POINT ( 'NONE',  ( 0.5000000000000000000, 61.52684462632866800, -5.444566460733410600 ) ) ;
#211 = PERSON_AND_ORGANIZATION ( #137, #9 ) ;
#212 = CARTESIAN_POINT ( 'NONE',  ( -0.5000000000000000000, 63.79895814628816500, -3.604084499055193500 ) ) ;
#213 = CARTESIAN_POINT ( 'NONE',  ( -0.5000000000000000000, 64.23011602339664700, -2.943483766042218600 ) ) ;
#214 =( NAMED_UNIT ( * ) PLANE_ANGLE_UNIT ( ) SI_UNIT ( $, .RADIAN. ) );
#215 = CARTESIAN_POINT ( 'NONE',  ( 0.5000000000000002200, 56.83148264952271900, 5.598747015771031100 ) ) ;
#216 = DATE_TIME_ROLE ( 'creation_date' ) ;
#217 = CLOSED_SHELL ( 'NONE', ( #208, #115, #25 ) ) ;
#218 = CARTESIAN_POINT ( 'NONE',  ( -0.5000000000000001100, 53.55563208583598800, -2.534373538739013400 ) ) ;
#219 = PERSON_AND_ORGANIZATION_ROLE ( 'design_supplier' ) ;
#220 = CARTESIAN_POINT ( 'NONE',  ( -0.4999999999999998900, 52.98649421734196400, 0.1390298166868048600 ) ) ;
#221 = CARTESIAN_POINT ( 'NONE',  ( 0.5000000000000000000, 59.14242529533523700, 6.011000452483570700 ) ) ;
#222 = AXIS2_PLACEMENT_3D ( 'NONE', #256, #74, #121 ) ;
#223 = CARTESIAN_POINT ( 'NONE',  ( -0.5000000000000000000, 60.86628129044156300, 5.705042990420757600 ) ) ;
#224 = CARTESIAN_POINT ( 'NONE',  ( -0.5000000000000000000, 55.44265547967747700, 4.849169553852014800 ) ) ;
#225 = CARTESIAN_POINT ( 'NONE',  ( -0.5000000000000000000, 54.84293857450804700, 4.346365681522135200 ) ) ;
#226 = CARTESIAN_POINT ( 'NONE',  ( -0.4999999999999998900, 55.77235347837157100, 5.074509848195468500 ) ) ;
#227 = EDGE_LOOP ( 'NONE', ( #152 ) ) ;
#228 = LOCAL_TIME ( 8, 55, 29.00000000000000000, #92 ) ;
#229 = PRODUCT_DEFINITION_SHAPE ( 'NONE', 'NONE',  #288 ) ;
#230 = PERSON_AND_ORGANIZATION ( #137, #9 ) ;
#231 = CARTESIAN_POINT ( 'NONE',  ( 0.4999999999999997800, 54.39795135229069700, -3.852569588534785300 ) ) ;
#232 = CARTESIAN_POINT ( 'NONE',  ( 0.4999999999999998900, 55.87757522314482400, -5.128665410178447500 ) ) ;
#233 = CARTESIAN_POINT ( 'NONE',  ( 0.4999999999999998900, 63.14817504635186700, -4.350784739793951400 ) ) ;
#234 = CARTESIAN_POINT ( 'NONE',  ( -0.4999999999999998900, 60.42545448816333200, -5.840999278960569400 ) ) ;
#235 = DIRECTION ( 'NONE',  ( 0.0000000000000000000, 0.0000000000000000000, 1.000000000000000000 ) ) ;
#236 = CARTESIAN_POINT ( 'NONE',  ( -0.5000000000000000000, 57.13242128307419400, -5.706058547409844200 ) ) ;
#237 = CARTESIAN_POINT ( 'NONE',  ( 0.5000000000000001100, 54.20312605538992300, 3.612520239376619800 ) ) ;
#238 = DATE_AND_TIME ( #184, #228 ) ;
#239 = CARTESIAN_POINT ( 'NONE',  ( 0.5000000000000000000, 64.91193524681898500, 1.031976657867312400 ) ) ;
#240 = SECURITY_CLASSIFICATION_LEVEL ( 'unclassified' ) ;
#241 = CARTESIAN_POINT ( 'NONE',  ( 0.5000000000000000000, 61.43036999586563200, 5.498737367169179700 ) ) ;
#242 = CARTESIAN_POINT ( 'NONE',  ( -0.5000000000000000000, 61.53716377570614800, -5.439775826932726800 ) ) ;
#243 = CARTESIAN_POINT ( 'NONE',  ( -0.5000000000000002200, 53.12761236685896200, 1.303201625021948300 ) ) ;
#244 = CARTESIAN_POINT ( 'NONE',  ( 0.5000000000000001100, 53.35157852260522300, 2.067671499242303800 ) ) ;
#245 = CARTESIAN_POINT ( 'NONE',  ( -0.5000000000000000000, 61.05141933673660000, 5.641099145744446400 ) ) ;
#246 = CARTESIAN_POINT ( 'NONE',  ( -0.5000000000000000000, 62.12090041171909100, 5.138316067881300200 ) ) ;
#247 = CARTESIAN_POINT ( 'NONE',  ( -0.5000000000000002200, 59.91768940820149700, 5.942291227366461600 ) ) ;
#248 = PERSON_AND_ORGANIZATION ( #137, #9 ) ;
#249 = FACE_OUTER_BOUND ( 'NONE', #251, .T. ) ;
#250 = PRODUCT_RELATED_PRODUCT_CATEGORY ( 'detail', '', ( #206 ) ) ;
#251 = EDGE_LOOP ( 'NONE', ( #189 ) ) ;
#252 = CALENDAR_DATE ( 2020, 18, 5 ) ;
#253 = ORIENTED_EDGE ( 'NONE', *, *, #113, .T. ) ;
#254 = CARTESIAN_POINT ( 'NONE',  ( 0.5000000000000005600, 54.93257691176474800, -4.430280281703920400 ) ) ;
#255 = CARTESIAN_POINT ( 'NONE',  ( 0.5000000000000000000, 64.86623041062368600, -1.310572161188099800 ) ) ;
#256 = CARTESIAN_POINT ( 'NONE',  ( 0.0000000000000000000, 0.0000000000000000000, 0.0000000000000000000 ) ) ;
#257 = LOCAL_TIME ( 8, 55, 29.00000000000000000, #272 ) ;
#258 = CARTESIAN_POINT ( 'NONE',  ( 0.5000000000000002200, 63.42787699284692600, -4.065753186358399800 ) ) ;
#259 = CARTESIAN_POINT ( 'NONE',  ( 0.5000000000000001100, 53.77139870361194300, 2.953778690561223100 ) ) ;
#260 = DIRECTION ( 'NONE',  ( 1.000000000000000000, 0.0000000000000000000, 0.0000000000000000000 ) ) ;
#261 = CARTESIAN_POINT ( 'NONE',  ( 0.5000000000000000000, 55.77721395454850800, 5.077500929827270000 ) ) ;
#262 = CARTESIAN_POINT ( 'NONE',  ( -0.5000000000000000000, 58.86446653308604500, -6.011292095696866500 ) ) ;
#263 = ORIENTED_EDGE ( 'NONE', *, *, #109, .T. ) ;
#264 = CARTESIAN_POINT ( 'NONE',  ( 0.4999999999999997800, 57.58026142531151900, 5.843352846640115700 ) ) ;
#265 = CARTESIAN_POINT ( 'NONE',  ( -0.4999999999999998900, 59.26405764031323300, -6.006880860699003400 ) ) ;
#266 = CARTESIAN_POINT ( 'NONE',  ( -0.4999999999999997800, 53.35858501929023100, 2.058986977769284600 ) ) ;
#267 = CARTESIAN_POINT ( 'NONE',  ( 0.4999999999999998900, 58.74329757459024400, 6.007432698951280500 ) ) ;
#268 = CARTESIAN_POINT ( 'NONE',  ( -0.5000000000000002200, 56.82001820294873800, 5.604616799297525100 ) ) ;
#269 = CARTESIAN_POINT ( 'NONE',  ( -0.5000000000000001100, 56.46057151029409500, 5.451277999947203400 ) ) ;
#270 = PERSON_AND_ORGANIZATION ( #137, #9 ) ;
#271 = CARTESIAN_POINT ( 'NONE',  ( -0.4999999999999997800, 58.15414472272424700, 5.943599513422420000 ) ) ;
#272 = COORDINATED_UNIVERSAL_TIME_OFFSET ( 1, 0, .AHEAD. ) ;
#273 = CC_DESIGN_PERSON_AND_ORGANIZATION_ASSIGNMENT ( #162, #103, ( #176 ) ) ;
#274 = AXIS2_PLACEMENT_3D ( 'NONE', #39, #127, #196 ) ;
#275 = APPROVAL_PERSON_ORGANIZATION ( #270, #73, #16 ) ;
#276 = CARTESIAN_POINT ( 'NONE',  ( 0.5000000000000001100, 59.83931083172089400, -5.943984711256313800 ) ) ;
#277 = CARTESIAN_POINT ( 'NONE',  ( 0.4999999999999998900, 64.49001883159967000, -2.424303967336465200 ) ) ;
#278 = CARTESIAN_POINT ( 'NONE',  ( 0.5000000000000000000, 57.68752148858078500, -5.868289301700167800 ) ) ;
#279 = CARTESIAN_POINT ( 'NONE',  ( 0.4999999999999998900, 65.00956966553798100, -0.1370251608036950900 ) ) ;
#280 = APPLICATION_CONTEXT ( 'configuration controlled 3d designs of mechanical parts and assemblies' ) ;
#281 = PLANE ( 'NONE',  #120 ) ;
#282 = PERSON_AND_ORGANIZATION_ROLE ( 'creator' ) ;
#283 = CARTESIAN_POINT ( 'NONE',  ( 0.5000000000000001100, 64.83160123968546900, 1.417272986960519600 ) ) ;
#284 = APPLICATION_PROTOCOL_DEFINITION ( 'international standard', 'config_control_design', 1994, #32 ) ;
#285 = CARTESIAN_POINT ( 'NONE',  ( 0.5000000000000000000, 62.44760293633220300, 4.913129287643234200 ) ) ;
#286 = CARTESIAN_POINT ( 'NONE',  ( -0.5000000000000002200, 56.40156089177690300, -5.412744910092984100 ) ) ;
#287 = CARTESIAN_POINT ( 'NONE',  ( 0.5000000000000002200, 53.49774372493671100, 2.430224025088967700 ) ) ;
#288 = PRODUCT_DEFINITION ( 'UNKNOWN', '', #42, #204 ) ;
#289 = CARTESIAN_POINT ( 'NONE',  ( 0.5000000000000000000, 52.98656822880347100, 0.1430010417674388000 ) ) ;
#290 = CARTESIAN_POINT ( 'NONE',  ( -0.5000000000000000000, 53.15547839698810200, -1.422575041572550400 ) ) ;
#291 = CARTESIAN_POINT ( 'NONE',  ( -0.5000000000000001100, 61.59744794676841900, 5.411232478070630200 ) ) ;
#292 = CARTESIAN_POINT ( 'NONE',  ( -0.5000000000000000000, 53.66912627059838300, 2.778659776471354100 ) ) ;
#293 = CARTESIAN_POINT ( 'NONE',  ( -0.5000000000000001100, 64.66212646758624800, 1.989122233664452700 ) ) ;
ENDSEC;
END-ISO-10303-21;
